top separator

Home

Forum

What's New

Submit a Tab

FAQ

Links

Contact Us

Link to Us

MuSpy.com

MetalTabs.com logo

Bands

0-9

A

B

C

D

E

F

G

H

I

J

K

L

M

N

O

P

Q

R

S

T

U

V

W

X

Y

Z

Search

What

Where
 

Gut - "Cripple bitch" Guitar Tab

Plain Text Version
More Gut Tabs

Hits: 3563
Rated: 4.88 out of 5 (8 votes)
Updated: 2006-04-12 02:57:03

 

By:

Licky Webster

sendpm.gif

email.gif

Important note
This tab is available online because we obtained explicit permission from Gut or their label.


#----------------------------------PLEASE NOTE---------------------------------#
#This file is the author's own work and represents their interpretation of the #
#song. You may only use this file for private study, scholarship, or research. #
#Unless specified otherwise, this is NOT an official tab from the band members.#
#------------------------------------------------------------------------------#

  Visit MetalTabs.com for more metal tablature
  
Band:  Gut
Album: Odour of torture
Song:  Cripple bitch

Record Label: R.S.R. records/Morbid records/SPV 1994
Version 1.0 - 20.03.2006

Transcribed By: Yaniv D
Email:          cannibalcorpse@walla.com


.  - palm mute           /  - slide up to
\  - slide down to       ~  - vibrato
h  - hammer on           b  - Bend
p  - pull off            Suffixes for bend
t  - tap                 f  - full bend    h - half bend
ph - pinched harmonic    q  - quarter bend t - tap bend
*  - see comment         ^  - Hold bend    r release bend
x  - Stuccatto           ~  - vibrato bend
,  - slight palm mute    () - ghost note, sustained note
"  - tremolo note        <> - Trill

Tuning G# C# F# B D# G#

Riff A x10                Times 1-5,7-9    Times 6,10
G#|----------------------|----------------|-------------|
D#|----------------------|----------------|-------------|
B#|----------------------|----------------|-------------|
F#|----------------------|----------------|-------------|
C#|-2-2---2-5-5---5-4-4--|-4-6-6---6------|-4-6---6-----|
G#|-0-0---0-3-3---3-2-2--|-2-4-4---4------|-2-4---4-----|

Riff B x4
|----------------------------------|
|----------------------------------|
|----------------------------------|
|----------------------------------|
|-2-2-2-2-5-5-5-5-4-4-4-4-6-6-6-6--|
|-0-0-0-0-3-3-3-3-2-2-2-2-4-4-4-4--|

Riff A x6                Times 1-3,5      Times 4,6
G#|----------------------|----------------|-------------|
D#|----------------------|----------------|-------------|
B#|----------------------|----------------|-------------|
F#|----------------------|----------------|-------------|
C#|-2-2---2-5-5---5-4-4--|-4-6-6---6------|-4-6---6-----|
G#|-0-0---0-3-3---3-2-2--|-2-4-4---4------|-2-4---4-----|

Riff B x4

Grand finale
G#|------------|
D#|------------|
B#|------------|
F#|------------|
C#|-2----------|
G#|-0----------|

END

  Visit MetalTabs.com for more metal tablature

bottom separator

Contact Us | Privacy Policy | Disclaimer | Legal Notice
Copyright © 2001-2014 MetalTabs.com. All Rights Reserved.