top separator

Home

Forum

What's New

Submit a Tab

FAQ

Links

Contact Us

Link to Us

MetalTabs.com logo

Bands

0-9

A

B

C

D

E

F

G

H

I

J

K

L

M

N

O

P

Q

R

S

T

U

V

W

X

Y

Z

Search

What

Where
 

Avulsed - "Cadaver Decapitado" Guitar Tab

Plain Text Version
More Avulsed Tabs

Hits: 2843
Rated: 5.00 out of 5 (1 vote)
Updated: 2006-04-12 02:54:08

 

By:

Robbie Filth

sendpm.gif

email.gif

Important note
This tab is available online because we obtained explicit permission from Avulsed or their label.


#----------------------------------PLEASE NOTE---------------------------------#
#This file is the author's own work and represents their interpretation of the #
#song. You may only use this file for private study, scholarship, or research. #
#Unless specified otherwise, this is NOT an official tab from the band members.#
#------------------------------------------------------------------------------#

  Visit MetalTabs.com for more metal tablature
  
Band: Avulsed
Album: Yearning for the Grotesque
Song: Cadaver Decapitado
Record Label: Avantgarde music
Tuning: C F A# D# G C

------------------------------------------------------------------
------------------------------------------------------------------
------------------------------------------------------------------
------------------------------------------------------------------
------------------------------------------------------------------
-3-6-3-6-3-6-3-6-3-6-3-5-6-5-3-5-3-6-3-6-3-6-3-6-3-6-3-8-9-8-6-5--X4
pm   .   .   .   .   .           .   .   .   .   .   .

-------------------------------------------------
-------------------------------------------------
-------------------------------------------------
-6-6--6-6-3--6-6--6-6-3--6-6--6-6-3--6-6--6-6-3--
-4-4--4-4-1--4-4--4-4-1--4-4--4-4-1--4-4--4-4-1--
-------------------------------------------------

-------------------------------------------------
-------------------------------------------------
-------------------------------------------------
-6-6--6-6-3--6-6--6-6-3--6-6--6-6-3--6-6--6-6-3--
-4-4--4-4-1--4-4--4-4-1--4-4--4-4-1--4-4--4-4-1--
-------------------------------------------------
let notes ring this time.

------------------------------------------------------------------
------------------------------------------------------------------
------------------------------------------------------------------
------------------------------------------------------------------
------------------------------------------------------------------
-3-6-3-6-3-6-3-6-3-6-3-5-6-5-3-5-3-6-3-6-3-6-3-6-3-6-3-8-9-8-6-5--X2
pm   .   .   .   .   .           .   .   .   .   .   .

-----------------------------X2------------------------------------------------
-------------------------------------------------------------------------------
-------------------------------------------------ph----------------------------
-------------------------------------------------12---12-10h12p10-8------------
---10-9-12-10---13-12-10-12-10t12-9------10-9-12--------------------12-10-9----
-3------------3---------------------11-3------------3-----------------------11-
pm            .                        .            .

------------------------------------------------------------------
------------------------------------------------------------------
------------------------------------------------------------------
-7-7-7-7-7-7-7-7-7-7-7-7-7-------6-6-6-6-6-6-6-6-6-6-6-6-6--------
-5-5-5-5-5-5-5-5-5-5-5-5-5-------4-4-4-4-4-4-4-4-4-4-4-4-4--------
---------------------------6-5-3---------------------------6-5-3--X4

-------------------------------X2----------------------------------------------
-------------------------------------------------------------------------------
-------------------------------------------------ph----------------------------
-------------------------------------------------12---12-10h12p10-8------------
---10-9-12-10---13-12-10-12-10t12-9------10-9-12--------------------12-10-9----
-3------------3---------------------11-3------------3-----------------------11-
pm            .                        .            .

-------------------------------------------------
-------------------------------------------------
-------------------------------------------------
-6-6--6-6-3--6-6--6-6-3--6-6--6-6-3--6-6--6-6-3--
-4-4--4-4-1--4-4--4-4-1--4-4--4-4-1--4-4--4-4-1--
-------------------------------------------------

-------------------------------------------------
-------------------------------------------------
-------------------------------------------------
-6-6--6-6-3--6-6--6-6-3--6-6--6-6-3--6-6--6-6-3--
-4-4--4-4-1--4-4--4-4-1--4-4--4-4-1--4-4--4-4-1--
-------------------------------------------------
let notes ring this time.

*drum fill*

------------------------------------------------------------------
------------------------------------------------------------------
------------------------------------------------------------------
------------------------------------------------------------------
------------------------------------------------------------------
-3-6-3-6-3-6-3-6-3-6-3-5-6-5-3-5-3-6-3-6-3-6-3-6-3-6-3-8-9-8-6-5--X2
pm   .   .   .   .   .           .   .   .   .   .   .

Over Solo
---------------------
---------------------
---------------------
------8----5----7----
-5----6----3----5----
-3----6----3----5----X4

------------------------------------------------------------------
------------------------------------------------------------------
------------------------------------------------------------------
------------------------------------------------------------------
------------------------------------------------------------------
-3-6-3-6-3-6-3-6-3-6-3-6-8-6-3-6-2-5-2-5-2-5-2-5-2-5-2-5-6-5-2-5--
pm   .   .   .   .   .       .   .   .   .   .   .   .       .

------------------------------------------------------------------
------------------------------------------------------------------
------------------------------------------------------------------
---------------------------------2-5-2-5-2-5-2-5-------------ph---
-------------------------------------------------3-6-3-6-3-6-6----
-1-5-1-5-1-5-1-5-1-5-1-5-6-5-1-5----------------------------------
pm   .   .   .   .   .       .   .   .   .   .   .   .   .

------------------------------------------------------------------
------------------------------------------------------------------
------------------------------------------------------------------
------------------------------------------------------------------
------------------------------------------------------------------
-3-6-3-6-3-6-3-6-3-6-3-6-8-6-3-6-2-5-2-5-2-5-2-5-2-5-2-5-6-5-2-5--
pm   .   .   .   .   .       .   .   .   .   .   .   .       .

------------------------------------------------------------------
------------------------------------------------------------------
------------------------------------------------------------------
---------------------------------2-5-2-5-2-5-2-5-------------ph---
-------------------------------------------------3-6-3-6-3-6-6----
-1-5-1-5-1-5-1-5-1-5-1-5-6-5-1-5----------------------------------
pm   .   .   .   .   .       .   .   .   .   .   .   .   .

----------------------------------
----------------------------------
----------------------------------
----------------------------------
-7-8-7-6-7-6-5-6-7-8-7-6-7-6-5-6--
-5-6-5-4-5-4-3-4-5-6-5-4-5-4-3-4--X4

Over Solo
---------------------
---------------------
---------------------
------8----5----7----
-5----6----3----5----
-3----6----3----5----X4

-------------------------------------
-------------------------------------
-------------------------------------
-------------------------------------
-------------------------------------
-3-3-5-6-5-5-6-8-6-6-8-10-8-8-10-11--X2
 pm.     . .     . .

------------------------------------------------------------------
------------------------------------------------------------------
------------------------------------------------------------------
------------------------------------------------------------------
------------------------------------------------------------------
-3-6-3-6-3-6-3-6-3-6-3-6-8-6-3-6-2-5-2-5-2-5-2-5-2-5-2-5-6-5-2-5--
pm   .   .   .   .   .       .   .   .   .   .   .   .       .

------------------------------------------------------------------
------------------------------------------------------------------
------------------------------------------------------------------
---------------------------------2-5-2-5-2-5-2-5-------------ph---
-------------------------------------------------3-6-3-6-3-6-6----
-1-5-1-5-1-5-1-5-1-5-1-5-6-5-1-5----------------------------------
pm   .   .   .   .   .       .   .   .   .   .   .   .   .

------------------------------------------------------------------
------------------------------------------------------------------
------------------------------------------------------------------
------------------------------------------------------------------
------------------------------------------------------------------
-3-6-3-6-3-6-3-6-3-6-3-6-8-6-3-6-2-5-2-5-2-5-2-5-2-5-2-5-6-5-2-5--
pm   .   .   .   .   .       .   .   .   .   .   .   .       .

------------------------------------------------------------------
------------------------------------------------------------------
------------------------------------------------------------------
---------------------------------2-5-2-5-2-5-2-5-------------ph---
-------------------------------------------------3-6-3-6-3-6-6----
-1-5-1-5-1-5-1-5-1-5-1-5-6-5-1-5----------------------------------
pm   .   .   .   .   .       .   .   .   .   .   .   .   .

----------------------------------
----------------------------------
----------------------------------
----------------------------------
-7-8-7-6-7-6-5-6-7-8-7-6-7-6-5-6--
-5-6-5-4-5-4-3-4-5-6-5-4-5-4-3-4--X4

----------------------------------
----------------------------------
----------------------------------
----------------------------------
-4-5-4-3-4-3-2-3-4-5-4-3-4-3-2-3--
-2-3-2-1-2-1-0-1-2-3-2-1-2-1-0-1--X4

----------------------------------
----------------------------------
----------------------------------
----------------------------------
-7-8-7-6-7-6-5-6-7-8-7-6-7-6-5-6--
-5-6-5-4-5-4-3-4-5-6-5-4-5-4-3-4--X4

------------------------------------------------------------------
------------------------------------------------------------------
------------------------------------------------------------------
-7-7-7-7-7-7-7-7-7-7-7-7-7-------6-6-6-6-6-6-6-6-6-6-6-6-6--------
-5-5-5-5-5-5-5-5-5-5-5-5-5-------4-4-4-4-4-4-4-4-4-4-4-4-4--------
---------------------------6-5-3---------------------------6-5-3--X4

-------------------------------------------------
-------------------------------------------------
-------------------------------------------------
-6-6--6-6-3--6-6--6-6-3--6-6--6-6-3--6-6--6-6-3--
-4-4--4-4-1--4-4--4-4-1--4-4--4-4-1--4-4--4-4-1--
-------------------------------------------------

-------------------------------------------------
-------------------------------------------------
-------------------------------------------------
-2-2--2-2-3--2-2--2-2-3--2-2--2-2-3--2-2--2-2-3--
-4-4--4-4-1--4-4--4-4-1--4-4--4-4-1--4-4--4-4-1--
-------------------------------------------------

THE END

any corrections mail them to: septic_flesh241@hotmail.com

  Visit MetalTabs.com for more metal tablature

bottom separator

Contact Us | Privacy Policy | Disclaimer | Legal Notice
Copyright © 2001-2014 MetalTabs.com. All Rights Reserved.