top separator

Home

Forum

What's New

Submit a Tab

FAQ

Links

Contact Us

Link to Us

MuSpy.com

MetalTabs.com logo

Bands

0-9

A

B

C

D

E

F

G

H

I

J

K

L

M

N

O

P

Q

R

S

T

U

V

W

X

Y

Z

Search

What

Where
 

Atheist - "Your Life's Retribution" Bass Tab

Plain Text Version
More Atheist Tabs

Hits: 3276
Rated: 5.00 out of 5 (6 votes)
Updated: 2007-04-11 22:59:12

 

By:

epitaph

sendpm.gif

email.gif

Important note
This tab is available online because we obtained explicit permission from Atheist or their label.


#----------------------------------PLEASE NOTE---------------------------------#
#This file is the author's own work and represents their interpretation of the #
#song. You may only use this file for private study, scholarship, or research. #
#Unless specified otherwise, this is NOT an official tab from the band members.#
#------------------------------------------------------------------------------#

  Visit MetalTabs.com for more metal tablature
  
Band: Atheist
Album: Unquestionable Presence
Song: Retribution

Copyright (c) Active Records 1991 / Relapse Records 2005
Version 3.0 - 17th of May, 2006 - 26th of March, 2007 (Latest corrections)

Transcribed By: Lassi Nurminen (aka, epitaph)
Email: Gaborik10@hotmail.com / Gaborik@welho.com

EADG (From low to high)

0:00
|----------------------------------------------|
|-------------9-8-----------------9-8----------| Twice
|-----------------9-8-----------------9-8-9-11-|
|-0-000-0-0------------0-000-0-0---------------|

0:10
|-----------------------10-------------------------|
|--------------------------------------5-4-------7-| Five
|-7-6---5-4---7-6---6-7----7-6---5-4-------5-4-5---| Times
|-----8-----6-----8------------8-----6-------------|

0:30
|-----------------------10-------------------------|
|------------------------------------------------3-|
|-7-6---5-4---7-6---6-7----7-6---5-4---------3-2---|
|-----8-----6-----8------------8-----6-0-2-3-------|

|-----------------------10-------------------------|
|--------------------------------------5-4-------7-| Twice
|-7-6---5-4---7-6---6-7----7-6---5-4-------5-4-5---|
|-----8-----6-----8------------8-----6-------------|

0:40
|------|
|------|
|-7----|
|----5-|

|---9----------------11-----------|
|-7----9---10------9----11--12----| Four
|----7---8----10------9---10---12-| Times
|------------8---------------10---|

0:52
|-----------------------------------------------------------|
|-----------------------------------------------------------|
|-----8-7---7---7---6---5-4h5p4h5-----8-7---7-6---6-5---5-4-|
|-000-----0---6---5---4-----------000-----0-----0-----0-----|

|-----------------------------------------------------------------------|
|-----------------------------------------------------------------------|
|-----8-7---7---7---6---5-4h5p4h5-----8-7---7-6---6-5---5--4--3--5--4---|
|-000-----0---6---5---4-----------000-----0-----0-----0---------------3-|

1:04
|----------------------------------------------9---|
|------------------------------------------9-9---9-|
|----------------------------------------7---------|
|-2-222-2-4-5--2-222-2-4-5--2-222-2-4-5------------|

|----------------------------------------------------|
|----------------------------------------------------|
|----------------------------------------------------|
|-2-222-2-4-5--2-222-2-4-5--2-222-2-4-5--0-000-0-000-|

1:12
|---------------9-------------|
|---------7-------------------| Twice
|-----3-5---777---------3-0-5-|
|-5-3---------------5-3-------|

1:24
|----------------------------------------------9---|
|------------------------------------------9-9---9-|
|----------------------------------------7---------|
|-2-222-2-4-5--2-222-2-4-5--2-222-2-4-5------------|

|----------------------------------------------------|
|----------------------------------------------------|
|----------------------------------------------------|
|-2-222-2-4-5--2-222-2-4-5--2-222-2-4-5--0-000-0-000-|

1:33
|---------------|
|---------------|
|---3-------3---|
|-3---5---3---5-|

1:36
|-----------------------------------------------------------------|
|-----------------------------------------------------------------|
|-333-3-3-3-3-3-3-----------------555-5-5-5-5-5-5-----------------|
|-----------------222-2-2-2-2-2-2-----------------555-5-5-5-5-5-5-|

|----------------------------------------------------------|
|----------------------------------------------------------|
|-777-7-7-7-7-7-7-----------------999-9-9-9-9-9-9----------|
|-----------------666-6-6-6-6-6-6-----------------99-9-9-9-|

|--------------------------------------------------------|
|--------------------------------------------------------|
|-777-7-7-7-7-7-7-777-7-7-7-7-7-7-7-777-7-7-7-7-7-7-7--7-|
|--------------------------------------------------------|

1:50
|-------------------------|
|-9--7--5--7---9--7--5--4-|
|-7--5--3--5---7--5--3--2-|
|-------------------------|

2:00
|-------------------------------------------------77-7-7-7-|
|----------------------------------------------------------|
|-777-7-7-7-7-7-7-555-5-5-5-5-5-5-333-3-3-3-3-3-3----------|
|----------------------------------------------------------|

|-----------------------------------------------------------------|
|-----------------------------------------------------------------|
|-777-7-7-7-7-7-7-555-5-5-5-5-5-5-333-3-3-3-3-3-3-222-2-2-2-2-2-2-|
|-----------------------------------------------------------------|

2:10
|------------------------------------------------------------------|
|-------------------------1-0-3-2----------------------------------| Twice
|---------3-2-----4-3----------------------3-2-----4-3-----2-1-----|
|-0-3-2-0-----3-2-----4-3----------0-3-2-0-----3-2-----4-3-----2-1-|

|---------------------------------|
|-------------------------1-0-3-2-|
|---------3-2-----4-3-------------|
|-0-3-2-0-----3-2-----4-3---------|

2:25
|----------------------
|----------------------
|-------------7-8-9-10-
|-0---0-1-2-3----------
Continues:
-----------------------12-
--------------------------
--------------7-8-9-10----
-0---0-1-2-3--------------
Continues:
--------------------------------|
--------------------------------|
--------------------------------|
-0---0-1-2-3---3-2--0---0-1-2-3-|

2:38
|-----------------------10--------------------------|
|--------------------------------------5-4-------7--|
|-7-6---5-4---7-6---6-7----7-6---5-4-------5-4-5----|
|-----8-----6-----8------------8-----6--------------|

|-----------------------10----------------------|
|-----------------------------------------------|
|-7-6---5-4---7-6---6-7----7-6---5-4---------3--|
|-----8-----6-----8------------8-----6-0-2-3----|

2:44 Slap & Pop
|-------------5-------------5-------------5-------------5-|
|-----5-------------5-------------5-------------5---------|
|---------------------------------------------------------|
|-2-3---2-3-x---2-3---2-3-x---2-3---2-3-x---2-3---2-3-x---|

2:51 Slap
|----------------------------------------------|
|----------------------------------------------|
|----------------------------------------------|
|-5-4-5-4-2-4--5-4-5-4-2-4--5-4-5-4-2-4--5-4-5-|

2:57 Slap & Pop
|-------------5-------------5-------------5-------------5-|
|-----5-------------5-------------5-------------5---------|
|---------------------------------------------------------|
|-2-3---2-3-x---2-3---2-3-x---2-3---2-3-x---2-3---2-3-x---|

3:03 Slap
|----------------------------------------------------|
|----------------------------------------------------|
|----------------------------------------------------|
|-5-4-5-4-2-4--5-4-5-4-2-4--5-4-5-4-2-4--5-4-5-4-2-4-|

3:10
|-------------------------------|
|-------------------------------|
|---------4-3-----3-2-----------|
|-555-444-----0-5-----0-000-0-0-|

Thats it.. Cheers for watching!

  Visit MetalTabs.com for more metal tablature

bottom separator

Contact Us | Privacy Policy | Disclaimer | Legal Notice
Copyright © 2001-2014 MetalTabs.com. All Rights Reserved.