top separator

Home

Forum

What's New

Submit a Tab

FAQ

Links

Contact Us

Link to Us

MuSpy.com

MetalTabs.com logo

Bands

0-9

A

B

C

D

E

F

G

H

I

J

K

L

M

N

O

P

Q

R

S

T

U

V

W

X

Y

Z

Search

What

Where
 

Alas - "Absolute Purity" Guitar Tab

Plain Text Version
More Alas Tabs

Hits: 2045
Rated: 5.00 out of 5 (1 vote)
Updated: 2006-04-12 02:50:23

 

By:

sendpm.gif

email.gif

Important note
We did our best to reach Alas and ask for their permission to publish this tab. Unfortunately they did not respond to our requests or we could not find a way to contact them. This tab is available online until Alas tells us to take it down.


#----------------------------------PLEASE NOTE---------------------------------#
#This file is the author's own work and represents their interpretation of the #
#song. You may only use this file for private study, scholarship, or research. #
#Unless specified otherwise, this is NOT an official tab from the band members.#
#------------------------------------------------------------------------------#

  Visit MetalTabs.com for more metal tablature
  
Band:  Alas
Album: Absolute Purity
Song:  Absolute Purity

Copyright (c)  Hammerheart Records (2001)
Version 1.0 - 03/18/06

Transcribed By: Scott Giffin
Email: sgiffin_sdmf@hotmail.com



C# Tuning - C# F# B E G# C#




Intro - Riff#1

Left Guitar

C# |-----------------------------------------------------------------------|
G# |-----------------------------------------------------------------------|
E  |--------------------------4-6-4-----4-2-4------------------------------|
B  |-----------------------------------------------------------------------|
F# |--9-11-9-----12-11-12-------------------------9-11-9------12-11-12-----|
C# |7--------7/10---------10/5------5/4-------4/7--------7/10---------10/5-|


C# |Fill-1---------------------------|
G# |---------------------------------|
E  |7-6-4-6-7p6p4---4-6~-------------|
B  |--------------7------------------|
F# |---------------------------------|
C# |---------------------------------|


Right Guitar

C# |-------------------------------------------------------------------------|
G# |-------------------------------------------------------------------------|
E  |-----------11-9-11-------------------------------------------------------|
B  |-7-6-7----------------11-9-11----14-12-14-------------------16-14-16-----|
F# |-----------------------------------------------12-11-12------------------|
C# |7------7/10-------10/9-------9/12---------12/10---------10/14-------14/9-|


C# |Fill-1-----------------------|
G# |-----------------------------|
E  |-----------------------------|
B  |12-11-9-11-12p11p9----9-11~--|
F# |-------------------12--------|
C# |-----------------------------|

Left Guitar

C# |---------------------------------------------------------------------|
G# |---------------------------------------------------------------------|
E  |--------------------------4-6-4-----4-2-4----------------------------|
B  |---------------------------------------------------------------------|
F# |--9-11-9-----12-11-12-------------------------9-11-9------12-11-12-0-|
C# |7--------7/10---------10/5------5/4-------4/7--------7/10------------|

C# |Fill-2---------------------------|
G# |---------------------------------|
E  |7-6-4-7-6h7p6p4------------------|
B  |----------------7-6-4~-----------|
F# |---------------------------------|
C# |---------------------------------|


Right Guitar

C# |-------------------------------------------------------------------------|
G# |-------------------------------------------------------------------------|
E  |-----------11-9-11-------------------------------------------------------|
B  |--7-6-7---------------11-9-11------14-12-14------------------16-14-16----|
F# |------------------------------------------------12-11-12-----------------|
C# |7------7/10-------10/9--------9/12---------12/10--------10/14-------14/9-|

C# |Fill-2----------------------------|
G# |----------------------------------|
E  |----------------------------------|
B  |12-11-9-12-11h12p11p9-------------|
F# |----------------------12-11-9~----|
C# |----------------------------------|




Verse - Riff#2 (acoustic) Very faint in left ear... Haven't yet figured it out.

C# |-------------------------------------------------------------------------|
G# |-------------------------------------------------------------------------|
E  |-------------------------------------------------------------------------|
B  |-------------------------------------------------------------------------|
F# |-------------------------------------------------------------------------|
C# |-------------------------------------------------------------------------|




Pre-Chorus - Riff#3 Haven't yet got this 100% so, I throw it in when it's done.

Left Guitar

C# |-------------------------------------------------------------------------|
G# |-------------------------------------------------------------------------|
E  |-------------------------------------------------------------------------|
B  |-------------------------------------------------------------------------|
F# |-------------------------------------------------------------------------|
C# |-------------------------------------------------------------------------|

Right Guitar

C# |-------------------------------------------------------------------------|
G# |-------------------------------------------------------------------------|
E  |-------------------------------------------------------------------------|
B  |-------------------------------------------------------------------------|
F# |-------------------------------------------------------------------------|
C# |-------------------------------------------------------------------------|




Chorus - Riff#4

Left Guitar

C# |-------------------------------------------------------------------------|
G# |-------------------------------------------------------------------------|
E  |-------------------------------------------------------------------------|
B  |----11-11/12/11---12/14----12----12----12-----11-11/12/11---12/14----12--|
F# |--9-----------------------------------------9----------------------------|
C# |7---------------9-------10----10----10----7---------------9-------10-----|

C# |---------------------------------------------------|
G# |---------------------------------------------------|
E  |---------------------------------------------------|
B  |---11-----------11-11/12/11--12/14---12--12--------|
F# |---------12---9------------------------------------|
C# |10----10----7--------------9-------10--10--10-9----|


C# |Fill-1-------------------------|Fill-2------------|
G# |-------------------------------|------------------|
E  |-------------------------------|------------------|
B  |-------------------------------|------------------|
F# |-----9----7---5/9/7---7/10/9---|--10-9------------|
C# |7-10---10---9-------9-------10-|7------10-9-10-9--|


Right Guitar


C# |-----------------------------------------------------------------------|
G# |-----------------------------------------------------------------------|
E  |------------------------------------------------------------9/12-12-11-|
B  |----11-11/12/11---12/14----12----12----12-----11-11/12/11--------------|
F# |--9-----------------------------------------9--------------------------|
C# |7---------------9-------10----10----10----7---------------9------------|


C# |-------------------------------------------|
G# |-------------------------------------------|
E  |11-----------------------------------------|
B  |---12-----11-11/12/11--12/14--12--12-------|
F# |--------9----------------------------------|
C# |------7--------------9------10--10--10-9---|

C# |Fill-1------------------------|Fill-2-------------|
G# |------------------------------|-------------------|
E  |------------------------------|-------------------|
B  |--------------4/7/6---6/9/7---|--9-7--------------|
F# |-----9----7---------7------9--|5-----9-7-9-7------|
C# |7-10---10---9-----------------|-------------------|




Bridge/Solo - Riff#5

Left Guitar

C# |----------------------------------------------------|
G# |----------------------------------------------------|
E  |----------------------------------------------------|
B  |----------------------------------------------------|
F# |-----------------------------------------7----------|
C# |7-10-9-7-9-7-6-9-7-6-7-6-7-10-9-10p9-7-6---10-9-7-6-|

Right Guitar

C# |----------------------------------------------------|
G# |----------------------------------------------------|
E  |----------------------------------------------------|
B  |----------------------------------------------------|
F# |5-9-7-5-7-5-4-7-5-4-5-4-5-9-7-9p7-5-4-10-9-7--------|
C# |---------------------------------------------10-9---|





Solo

C# |-------------------------------------------15-14h15p14--14-|
G# |15p14p12h14/15~-17-15h17p15/14-15/19/20-17------------17---|
E  |-----------------------------------------------------------|
B  |-----------------------------------------------------------|
F# |-----------------------------------------------------------|
C# |-----------------------------------------------------------|

C# |15/19-19-19/15-15-14-14/17-17/15-15/12-12/15-14-14/10-10-|
G# |---------------------------------------------------------|
E  |---------------------------------------------------------|
B  |---------------------------------------------------------|
F# |---------------------------------------------------------|
C# |---------------------------------------------------------|


C# |14-14^15^14^15^14-12-10-9-10-12-10h12p10/9/10-19p15-19p15/14-|
G# |-------------------------------------------------------------|
E  |-------------------------------------------------------------|
B  |-------------------------------------------------------------|
F# |-------------------------------------------------------------|
C# |-------------------------------------------------------------|

C# |17-15-14-15-14-12-14-151412----------1214-14/17-17-19-19-|
G# |---------------------------1514121415--------------------|
E  |---------------------------------------------------------|
B  |---------------------------------------------------------|
F# |---------------------------------------------------------|
C# |---------------------------------------------------------|


C# |15-15-15/14-17-17-12-12-14^15^14-12-10-12h14p12/10-10h1210/9-10-12-10-9-10-|
G# |---------------------------------------------------------------------------|
E  |---------------------------------------------------------------------------|
B  |---------------------------------------------------------------------------|
F# |---------------------------------------------------------------------------|
C# |---------------------------------------------------------------------------|

C# |---------------------------------------------|
G# |12-14-14^15^14-12-14-12-14h15p14--14/17------|
E  |--------------------------------16-----------|
B  |---------------------------------------------|
F# |---------------------------------------------|
C# |---------------------------------------------|


C# |--------------------------------------------------------|
G# |19-15-14/17-15p14h15p14-12p11h12p11--11-----------------|
E  |-----------------------------------12--12-11-9-7-6h7p7~-|
B  |--------------------------------------------------------|
F# |--------------------------------------------------------|
C# |--------------------------------------------------------|

C# |--------------------------------------------------------------|
G# |--------------------------------------------------------------|
E  |7-9-9-7-9-9-9/11-7-7~-7-9-9/11/9-7-9-7-9-9h11p9-11/12-11-12---|
B  |--------------------------------------------------------------|
F# |--------------------------------------------------------------|
C# |--------------------------------------------------------------|

C# |--------------------------------------------------------|
G# |11h12p11/9/12/11h12p11/9-11p9/7-9p7/6-7p6/9-7-6~-7p6-7~-|
E  |--------------------------------------------------------|
B  |--------------------------------------------------------|
F# |--------------------------------------------------------|
C# |--------------------------------------------------------|


I am in the process of tabbing out this whole album...
So, sit tight and I'll get 'em done as fast as I can.

  Visit MetalTabs.com for more metal tablature

bottom separator

Contact Us | Privacy Policy | Disclaimer | Legal Notice
Copyright © 2001-2014 MetalTabs.com. All Rights Reserved.