top separator

Home

Forum

What's New

Submit a Tab

FAQ

Links

Contact Us

Link to Us

MetalTabs.com logo

Bands

0-9

A

B

C

D

E

F

G

H

I

J

K

L

M

N

O

P

Q

R

S

T

U

V

W

X

Y

Z

Search

What

Where
 

Jungle Rot - "Psychotic Cremation" Guitar Tab

Plain Text Version
More Jungle Rot Tabs

Hits: 2052
Updated: 2006-04-12 02:49:52

 

By:

sendpm.gif

email.gif

Important note
This tab is available online because we obtained explicit permission from Jungle Rot or their label.


#----------------------------------PLEASE NOTE---------------------------------#
#This file is the author's own work and represents their interpretation of the #
#song. You may only use this file for private study, scholarship, or research. #
#Unless specified otherwise, this is NOT an official tab from the band members.#
#------------------------------------------------------------------------------#

  Visit MetalTabs.com for more metal tablature
  
TABBER: Shaun Lautzenheiser (end_of_passion_play@hotmail.com)
Band: Jungle Rot (Crash Records)
Song: Psychotic Cremation
Album: Dead And Buried
Tuning: B E A D F# B

(Intro)Verse
B |--------------------------
F#|--------------------------
D |--------------------------  (Repeat 6 times)
A |--------------------------
E |--0---0-4-5-4-5-0--0-4----
B |--0---0-2-3-2-3-0--0-2----

Chorus
B |-------------------------------------------
F#|-------------------------------------------
D |------------------------------------------- (Repeat 4 times)
A |---------------------------------------5---
E |--0-5-6-4--0-5-6-4--0-5-6-4--0-5-6-4---3---
B |--0-3-4-2--0-3-4-2--0-3-4-2--0-3-4-2-------

Intro/Verse
B |--------------------------
F#|--------------------------
D |--------------------------  (Repeat 8 times)
A |--------------------------
E |--0---0-4-5-4-5-0--0-4----
B |--0---0-2-3-2-3-0--0-2----

Chorus(Outro)
B |-------------------------------------------
F#|-------------------------------------------
D |------------------------------------------- (Repeat 4 times)
A |---------------------------------------5---
E |--0-5-6-4--0-5-6-4--0-5-6-4--0-5-6-4---3---
B |--0-3-4-2--0-3-4-2--0-3-4-2--0-3-4-2-------

Any Questions? Contact me: end_of_passion_play@hotmail.com

  Visit MetalTabs.com for more metal tablature

bottom separator

Contact Us | Privacy Policy | Disclaimer | Legal Notice
Copyright © 2001-2014 MetalTabs.com. All Rights Reserved.