top separator

Home

Forum

What's New

Submit a Tab

FAQ

Links

Contact Us

Link to Us

MuSpy.com

MetalTabs.com logo

Bands

0-9

A

B

C

D

E

F

G

H

I

J

K

L

M

N

O

P

Q

R

S

T

U

V

W

X

Y

Z

Search

What

Where
 

Ahumado Granujo - "After Accident Part III" Guitar Tab

Plain Text Version
More Ahumado Granujo Tabs

Hits: 2273
Updated: 2006-04-12 02:49:19

 

By:

Lord_Seth

sendpm.gif

email.gif

Important note
This tab is available online because we obtained explicit permission from Ahumado Granujo or their label.


#----------------------------------PLEASE NOTE---------------------------------#
#This file is the author's own work and represents their interpretation of the #
#song. You may only use this file for private study, scholarship, or research. #
#Unless specified otherwise, this is NOT an official tab from the band members.#
#------------------------------------------------------------------------------#

  Visit MetalTabs.com for more metal tablature
  
Band:  Ahumado Granujo
Album: Instrumenta Chirurgica
Song:  After Accident Part III. (D.I. in our way)

Copyright (c) Bizarre Leprous Production  (1999)
Version 1.0 - 12/03/2006

Transcribed By:  Lord Seth (Eugenio Lozano)
Email:           iztlacoliuhqui@gmail.com


.  - palm mute           /  - slide up to
\  - slide down to       ~  - vibrato
h  - hammer on           b  - Bend
p  - pull off            Suffixes for bend
t  - tap                 f  - full bend    h - half bend
ph - pinched harmonic    q  - quarter bend t - tap bend
*  - see comment         ^  - Hold bend    r release bend
s  - Stuccatto           ~  - vibrato bend
,  - slight palm mute    () - ghost note, sustained note
"  - tremolo note        <> - Trill



Tuning B E A D F# B



 1st. Riff

|-----------------------------------------------------------------|
|-----------------------------------------------------------------|
|-----------------------------------------------------------------|
|-----------------------------------------------------------------|
|-2---2--5--4--3---2---2--5--4--3---2---2--5--4--3--5-5-5-5-7-7-7-|
|-0---0--3--2--1---0---0--3--2--1---0---0--3--2--1--3-3-3-3-5-5-5-|x2


 2nd Riff

|---------------------|
|---------------------|
|---------------------|
|---------------------|
|-2---6---5---3--5--3-|
|-0---4---3---1--3--1-|x2
              .  .  .



 3rd. Riff

|-----------------------------|
|-----------------------------|
|-----------------------------|
|-----------------------------|
|--2-2--2-6-6--6-5-5--5-3-5-3-|
|--0-0--0-4-4--4-3-3--3-1-3-1-|x4


 Fill

|-----------------------------------------------------------|
|-----------------------------------------------------------|
|-----------------------------------------------------------|
|-----------------------------------------------------------|
|-3-----3-----5-4-333333333333333333-5-4-333333333333333333-|
|-1-----1-----3-2-111111111111111111-3-2-111111111111111111-|


 4th. Riff

|----------------------------|
|----------------------------|
|----------------------------|
|----------------------------|
|-2-2-2-2--4-4--2-2-2-2------|
|-0-0-0-0--2-2--0-0-0-0--2/3-|x4
  . . . .       . . . .



 5th. Riff

|-----------------------------------|
|-----------------------------------|
|-----------------------------------|
|-----------------------------------|
|-2-2-------2-2-------2-2---------3-|
|-0-0--2/3--0-0--2/3--0-0--2/3--x-1-|x4
  . .       . .       . .

 4th. Riff x4


 2nd. Riff x2


 3rd. Riff x2


 Fill

|---|
|---|
|---|
|---|
|-2-|
|-0-|

END

  Visit MetalTabs.com for more metal tablature

bottom separator

Contact Us | Privacy Policy | Disclaimer | Legal Notice
Copyright © 2001-2014 MetalTabs.com. All Rights Reserved.