top separator

Home

Forum

What's New

Submit a Tab

FAQ

Links

Contact Us

Link to Us

MuSpy.com

MetalTabs.com logo

Bands

0-9

A

B

C

D

E

F

G

H

I

J

K

L

M

N

O

P

Q

R

S

T

U

V

W

X

Y

Z

Search

What

Where
 

Burzum - "Moti Ragnarokum" Guitar Tab

Plain Text Version
More Burzum Tabs

Hits: 6170
Rated: 5.00 out of 5 (15 votes)
Updated: 2006-06-09 21:56:40

 

By:

Lord_Seth

sendpm.gif

email.gif

Important note
This tab is available online because we obtained explicit permission from Burzum or their label.


#----------------------------------PLEASE NOTE---------------------------------#
#This file is the author's own work and represents their interpretation of the #
#song. You may only use this file for private study, scholarship, or research. #
#Unless specified otherwise, this is NOT an official tab from the band members.#
#------------------------------------------------------------------------------#

  Visit MetalTabs.com for more metal tablature
  
Band:  BURZUM
Album: Dauđi Baldrs
Song:  Móti Ragnarokum

Copyright c  MISANTHROPY RECORDS 1997
Version 1.2 - 16/04/2006

Transcribed By:  Lord Seth (Eugenio Lozano)
Email:           iztlacoliuhqui@gmail.com

.  - palm mute           /  - slide up to
\  - slide down to       ~  - vibrato
h  - hammer on           b  - Bend
p  - pull off            Suffixes for bend
t  - tap                 f  - full bend    h - half bend
ph - pinched harmonic    q  - quarter bend t - tap bend
*  - see comment         ^  - Hold bend    r release bend
s  - Stuccatto           ~  - vibrato bend
,  - slight palm mute    () - ghost note, sustained note
"  - tremolo note        <> - Trill


Tuning E A D G B E


  1st. Figure

|-------------------------------------------------------------------------|
|---------12---------13-12-10-------------------12---------13-12-10-------|
|------11----12-11-9----------12-11----------11----12-11-9----------12-11-|
|----9------------------------------12-----9------------------------------|
|-10------------------------------------10--------------------------------|
|-------------------------------------------------------------------------|
                                                                         x2
  2nd. Figure


|-------5------------5---7--------5------------5---|
|---------8-7----------8------------8-7----------8-|
|-4-7-6--------4-7-6--------4-7-6--------4-7-6-----|
|--------------------------------------------------|
|--------------------------------------------------|
|--------------------------------------------------|
                                                  x2
  3rd. Figure


|--------------------------------------------------------------|
|--------------------------------------------------------------|
|----------------------------9-7-------------------------------|
|-----11-12-11---------11-12----------11-12-11------------7----|
|---9----------10----9--------------9----------10----9-10---10-|
|-7----------------7--------------7----------------7-----------|
                                                              x2
  4th. Figure


|------------------------------------------------------|
|------------------------------------------------------|
|------------------------------------------------------|
|-----0---0---------7-------------0---0-----------7----|
|---9---7--------10---10-9-7----9---7--------9-10---10-|
|-7---------9--7--------------7---------9--7-----------|
                                                      x2
 3rd. Figure x2

 4th. Figure x2

 3rd. Figure x2

 4th. Figure x2

 3rd. Figure x2

 4th. Figure x2

 5th. Figure


|-----------------------------------------------------------------------------|
|-------------------------5-------5-7-8-------------------------5-------5-7-5-|
|---12-11-9-11-12-11-9------7-6-7---------12-11-9-11-12-11-9------7-6-7-------|
|-9---------------------5---------------9---------------------5---------------|
|-----------------------------------------------------------------------------|
|-----------------------------------------------------------------------------|
                                                                             x2

 3rd. Figure x2

 4th. Figure x2

 3rd. Figure x2

 4th. Figure x2

 3rd. Figure x2

 4th. Figure x2

 3rd. Figure x2

 4th. Figure x2

 3rd. Figure x2

 4th. Figure x2

 3rd. Figure x2

 4th. Figure x2

 3rd. Figure x2

 4th. Figure x2

 3rd. Figure x2

 4th. Figure x2

 5th. Figure x2

 End

  Visit MetalTabs.com for more metal tablature

bottom separator

Contact Us | Privacy Policy | Disclaimer | Legal Notice
Copyright © 2001-2014 MetalTabs.com. All Rights Reserved.