top separator

Home

Forum

What's New

Submit a Tab

FAQ

Links

Contact Us

Link to Us

MetalTabs.com logo

Bands

0-9

A

B

C

D

E

F

G

H

I

J

K

L

M

N

O

P

Q

R

S

T

U

V

W

X

Y

Z

Search

What

Where
 

Impetigo - "Boneyard" Guitar Tab

Plain Text Version
More Impetigo Tabs

Hits: 5857
Rated: 5.00 out of 5 (2 votes)
Updated: 2006-06-21 10:00:24

 

By:

Casketcrusher

sendpm.gif

email.gif

Important note
This tab is available online because we obtained explicit permission from Impetigo or their label.


#----------------------------------PLEASE NOTE---------------------------------#
#This file is the author's own work and represents their interpretation of the #
#song. You may only use this file for private study, scholarship, or research. #
#Unless specified otherwise, this is NOT an official tab from the band members.#
#------------------------------------------------------------------------------#

  Visit MetalTabs.com for more metal tablature
  
Band:  Impetigo
Album: Horror Of The Zombies
Song:  Boneyard

Copyright (c)  (Wild Rags) (1992)
Version 1.0 - (DATE)

Transcribed By: Casketcrusher
Email:          cannibalistic_corpsegrinder@hotmail.com


.  - palm mute           /  - slide up to
\  - slide down to       ~  - vibrato
h  - hammer on           b  - Bend
p  - pull off            Suffixes for bend
t  - tap                 f  - full bend    h - half bend
ph - pinched harmonic    q  - quarter bend t - tap bend
*  - see comment         ^  - Hold bend    r release bend
x  - Stuccatto           ~  - vibrato bend
,  - slight palm mute    () - ghost note, sustained note
"  - tremolo note        <> - Trill

Alright Alright! This is the correct version of this song.
Impetigo tunned to C# not B.
Sorry my other version is in B.But either one you play is right.
This is just how Impetigo plays it in this version.
Tuning  C#,F#,B,e,g#,c#


RIFF 1 After serial killer Henry Lee Lucas says
 “...set out to destroy human life.”
Around the 0:23 mark.

|---------------------------------------------------|
|---------------------------------------------------|
|---------------------------------------------------|
|---5---3----------Repeat 4 times-------------------|
|-2-3-5-1-------------------------------------------|
|-0---3---------------------------------------------|


Riff 2 (Similar to riff 1)

|---------------------------------------------------|
|---------------------------------------------------|
|---------------------------------------------------|
|-----5555------3333------Repeat 8 times------------|
|2222-3333-5555-1111--------------------------------|
|0000------3333-------------------------------------|
 ....      ....


Riff 3

|---------------------------------------------------|
|---------------------------------------------------|
|---------------------------------------------------|
|---5---6----------Repeat 4 times-------------------|
|-2-3-5-4-------------------------------------------|
|-0---3---------------------------------------------|

Riff 4
|---------------------------------------------------|
|---------------------------------------------------|
|---------------------------------------------------|
|---------------------------------------------------|
|(2)------------------------------------------------|
|-0-(32 Times)--------------------------------------|
  .
END
OK There is all the riffs. Here is the order in how they go
Riff 1,
Riff 2,
Riff 3,
Riff 4,
Riff 2,
Riff 3,
Riff 4,
Riff 2,
Riff 3,
Riff 4,
Riff 4,
End chord is C#.
That’s where Stevo goes “OOOOOOOOOOOOOOO!”

Anyway let’s get some more Impetigo tabs people!

  Visit MetalTabs.com for more metal tablature

bottom separator

Contact Us | Privacy Policy | Disclaimer | Legal Notice
Copyright © 2001-2014 MetalTabs.com. All Rights Reserved.