top separator

Home

Forum

What's New

Submit a Tab

FAQ

Links

Contact Us

Link to Us

MetalTabs.com logo

Bands

0-9

A

B

C

D

E

F

G

H

I

J

K

L

M

N

O

P

Q

R

S

T

U

V

W

X

Y

Z

Search

What

Where
 

Ahumado Granujo - "Vaginal Journey to the World of Erected Toys" Guitar Tab

Plain Text Version
More Ahumado Granujo Tabs

Hits: 2221
Updated: 2006-04-12 02:39:10

 

By:

Lord_Seth

sendpm.gif

email.gif

Important note
This tab is available online because we obtained explicit permission from Ahumado Granujo or their label.


#----------------------------------PLEASE NOTE---------------------------------#
#This file is the author's own work and represents their interpretation of the #
#song. You may only use this file for private study, scholarship, or research. #
#Unless specified otherwise, this is NOT an official tab from the band members.#
#------------------------------------------------------------------------------#

  Visit MetalTabs.com for more metal tablature
  
Band:  Ahumado Granujo
Album: Instrumenta Chirurgica
Song:  Vaginal Journey To The World Of Erected Toys

Copyright (c) Bizarre Leprous Production  (1999)
Version 1.0 - 14/03/2006

Transcribed By: Lord Seth (Eugenio Lozano)
Email:          Iztlacoliuhqui@gmail.com

.  - palm mute           /  - slide up to
\  - slide down to       ~  - vibrato
h  - hammer on           b  - Bend
p  - pull off            Suffixes for bend
t  - tap                 f  - full bend    h - half bend
ph - pinched harmonic    q  - quarter bend t - tap bend
*  - see comment         ^  - Hold bend    r release bend
s  - Stuccatto           ~  - vibrato bend
,  - slight palm mute    () - ghost note, sustained note
"  - tremolo note        <> - Trill


Tuning B E A D F# B


 1st Riff.

|--------------------------------------------------------|
|--------------------------------------------------------|
|--------------------------------------------------------|
|--------------------------------------------------------|
|--5-6--5-4-5----5-6--5-4-5----5-6--5-4-5----5-6--5-4-5--|
|--3-4--3-2-3--x-3-4--3-2-3--x-3-4--3-2-3--x-3-4--3-2-3--|
|                                                        |
|--------------------------------------------------------|
|--------------------------------------------------------|
|--------------------------------------------------------|
|--------------------------------------------------------|
|---3-4--3-2-3----3-4--3-2-3----3-4--3-2-3----3-4--3-2-3-|
|-x-1-2--1-0-1--x-1-2--1-0-1--x-1-2--1-0-1--x-1-2--1-0-1-|x2


 2nd. Riff

|-------------------------|
|-------------------------|
|-------------------------|
|-------------------------|
|----------3--2--------2--|
|-0--2--3--------3--2-----|x6


 1st. Riff x2


 3rd. Riff

|------------------|
|------------------|
|------------------|
|-5-5-4/5----------|
|-3-3-2/3--5-5-3-3-|
|----------3-3-1-1-|x8
           . . . .

 4th. Riff

|---------------------|
|---------------------|
|---------------------|
|-------------2---2-4-|
|-4-2-4-5-4-5-0-5-0-2-|
|-2-0-2-3-2-3---3-----|x4


 3rd. Riff x8

 4th. Riff x4

 2nd. Riff x6

 1st. Riff

 End

  Visit MetalTabs.com for more metal tablature

bottom separator

Contact Us | Privacy Policy | Disclaimer | Legal Notice
Copyright © 2001-2014 MetalTabs.com. All Rights Reserved.