top separator

Home

Forum

What's New

Submit a Tab

FAQ

Links

Contact Us

Link to Us

MetalTabs.com logo

Bands

0-9

A

B

C

D

E

F

G

H

I

J

K

L

M

N

O

P

Q

R

S

T

U

V

W

X

Y

Z

Search

What

Where
 

Avulsed - "Eminence In Putrescence" Guitar Tab

Plain Text Version
More Avulsed Tabs

Hits: 2038
Rated: 3.50 out of 5 (2 votes)
Updated: 2006-03-18 22:07:54

 

By:

Robbie Filth

sendpm.gif

email.gif

Important note
This tab is available online because we obtained explicit permission from Avulsed or their label.


#----------------------------------PLEASE NOTE---------------------------------#
#This file is the author's own work and represents their interpretation of the #
#song. You may only use this file for private study, scholarship, or research. #
#Unless specified otherwise, this is NOT an official tab from the band members.#
#------------------------------------------------------------------------------#

  Visit MetalTabs.com for more metal tablature
  
Band: Avulsed
Album: Stabwound Orgasm
Song: Eminence In Putrescence
Record Label: WWIII
Tuning: C F A# D# G C

----------------------------------------------
----------------------------------------------
----------------------------------------------
----------------------------------------------
-5\4-5\4-5\4-5\4--3333--5\4-5\4-5\4-5\4--3----
-5\4-5\4-5\4-5\4--1111--5\4-5\4-5\4-5\4--1----X6


-------------------------------------
-------------------------------------
-------------------------------------
-------------------------------------
---7-----8----------7-----8----------
-5---8-6---9-8-6--5---8-6---9-8-6-4--X2

----------------------------------------------
----------------------------------------------
----------------------------------------------
----------------------------------------------
-5\4-5\4-5\4-5\4--3333--5\4-5\4-5\4-5\4--3----
-5\4-5\4-5\4-5\4--1111--5\4-5\4-5\4-5\4--1----X2

-------------------------------------
-------------------------------------
-------------------------------------
-------------------------------------
---7-----8----------7-----8----------
-5---8-6---9-8-6--5---8-6---9-8-6-4--X4
 trem..............................

------------------------------------------------------------------------------
------------------------------------------------------------------------------
------------------------------------------------------------------------------
-------------------------------------------------------------5h7h8------------
-2-22222-------4h6h7-2-22222-------4h6h7-2-22222-------4h6h7-------4h6h7------
-0-00000-3h5h6-------0-00000-3h5h6-------0-00000-3h5h6-------------------5h7h8
 pm.....             . .....             . .....

--------
--------
--------
--------
--------
-3h5h6--X4 Continued from above.

-------------------------------------
-------------------------------------
-------------------------------------
-------------------------------------
---7-----8----------7-----8----------
-5---8-6---9-8-6--5---8-6---9-8-6-4--X4

------------------------------------------------------------------------------
------------------------------------------------------------------------------
------------------------------------------------------------------------------
-------------------------------------------------------------5h7h8------------
-2-22222-------4h6h7-2-22222-------4h6h7-2-22222-------4h6h7-------4h6h7------
-0-00000-3h5h6-------0-00000-3h5h6-------0-00000-3h5h6-------------------5h7h8
 pm.....             . .....             . .....

--------
--------
--------
--------
--------
-3h5h6--X4 Continued from above.

------------------------------------------------------------
------------------------------------------------------------
------------------------------------------------------------
---3-2-0-2-3--*--3-2-0-2-3-6---3-2-0-2-3--*--3-2-0-2-0------
-2------------3--------------2------------3------------3----
-0---------------------------0---------------------------4--X4
* = harmonic between 3rd and 4th frets.

-----------------------------------------------------------
-----------------------------------------------------------
-----------------------------------------------------------
---3-2-0-2-3-2--3-2-0-2-3-6----3-2-0-2-3-2--3-2-0-2-0------
-2---------------------------2------------------------3----
-0---------------------------0--------------------------4--X2

----------------
----------------
----------------
----------------
-7------4-------
-5------2-------

----------------------------------
----------------------------------
----------------------------------
------7----5----4-----------------
-2----5----3----2---555-5--777-7--
-0------------------333-3--555-5--X2
                    pm.    ...

------------------------------------------------------------
------------------------------------------------------------
------------------------------------------------------------
---3-2-0-2-3--*--3-2-0-2-3-6---3-2-0-2-3--*--3-2-0-2-0------
-2------------3--------------2------------3------------3----
-0---------------------------0---------------------------4--X2
* = harmonic between 3rd and 4th frets.

-----------------------------------------------------------
-----------------------------------------------------------
-----------------------------------------------------------
---3-2-0-2-3-2--3-2-0-2-3-6----3-2-0-2-3-2--3-2-0-2-0------
-2---------------------------2------------------------3----
-0---------------------------0--------------------------4--X2

----------------
----------------
----------------
----------------
-7------4-------
-5------2-------

----------------------------------
----------------------------------
----------------------------------
------7----5----4-----------------
-2----5----3----2---555-5--777-7--
-0------------------333-3--555-5--X2
                    pm.    ...

----------------------------------------------
----------------------------------------------
----------------------------------------------
----------------------------------------------
-5\4-5\4-5\4-5\4--3333--5\4-5\4-5\4-5\4--3----
-5\4-5\4-5\4-5\4--1111--5\4-5\4-5\4-5\4--1----X3

-------------------------------------
-------------------------------------
-------------------------------------
-------------------------------------
---7-----8----------7-----8----------
-5---8-6---9-8-6--5---8-6---9-8-6-4--X4
 trem..............................

------------------------------------------------------------------------------
------------------------------------------------------------------------------
------------------------------------------------------------------------------
-------------------------------------------------------------5h7h8------------
-2-22222-------4h6h7-2-22222-------4h6h7-2-22222-------4h6h7-------4h6h7------
-0-00000-3h5h6-------0-00000-3h5h6-------0-00000-3h5h6-------------------5h7h8
 pm.....             . .....             . .....

--------
--------
--------
--------
--------
-3h5h6--X3 Continued from above.

------------------------------------------------------------------------------
------------------------------------------------------------------------------
------------------------------------------------------------------------------
-------------------------------------------------------------5h7h8------------
-2-22222-------4h6h7-2-22222-------4h6h7-2-22222-------4h6h7-------4h6h7------
-0-00000-3h5h6-------0-00000-3h5h6-------0-00000-3h5h6-------------------5h7h8
 pm.....             . .....             . .....

----------
----------
----------
----------
-------2--
-3h5h6-0--
       pm

THE END

any corrections mail em to: septic_flesh241@Hotmail.com

  Visit MetalTabs.com for more metal tablature

bottom separator

Contact Us | Privacy Policy | Disclaimer | Legal Notice
Copyright © 2001-2014 MetalTabs.com. All Rights Reserved.