top separator

Home

Forum

What's New

Submit a Tab

FAQ

Links

Contact Us

Link to Us

MuSpy.com

MetalTabs.com logo

Bands

0-9

A

B

C

D

E

F

G

H

I

J

K

L

M

N

O

P

Q

R

S

T

U

V

W

X

Y

Z

Search

What

Where
 

As I Lay Dying - "Reflection" Guitar Tab

Plain Text Version
More As I Lay Dying Tabs

Hits: 3704
Rated: 3.00 out of 5 (4 votes)
Updated: 2006-03-18 22:07:33

 

By:

sendpm.gif

email.gif

Important note
This tab is available online because we obtained explicit permission from As I Lay Dying or their label.


#----------------------------------PLEASE NOTE---------------------------------#
#This file is the author's own work and represents their interpretation of the #
#song. You may only use this file for private study, scholarship, or research. #
#Unless specified otherwise, this is NOT an official tab from the band members.#
#------------------------------------------------------------------------------#

  Visit MetalTabs.com for more metal tablature
  
Band:  As I Lay Dying
Album: Shadows Are Security
Song:  Reflection

Copyright (c)  Metal Blade 2005
Version 1.0 - 2005

Transcribed By: Random Hero
Email:          sideburn777@yahoo.com


.  - palm mute           /  - slide up to
\  - slide down to       ~  - vibrato
h  - hammer on           b  - Bend
p  - pull off            Suffixes for bend
t  - tap                 f  - full bend    h - half bend
ph - pinched harmonic    q  - quarter bend t - tap bend
*  - see comment         ^  - Hold bend    r release bend
x  - Stuccatto           ~  - vibrato bend
,  - slight palm mute    () - ghost note, sustained note
"  - tremolo note        <> - Trill

Tuning C G C F A D

Intro
|--------------------------------------------|
|--------------------------------------------|
|-3--5-2-0---5--3-2-0---3--5-2-0---7--5-3-2--|  (play 2 times)
|--------------------------------------------|
|--------------------------------------------|
|--------------------------------------------|
 *(speed pick each note)

Verse
|-----------------------------------------------------------|
|-----------------------------------------------------------|
|-----------------------------------------------------------| (play 6 times)
|----------------7-------------8----------------------------|
|-8p5---------8p5-8---------8p5-8---------8p5---------------|
|-----000-000-------000-000-------000-000----0-8-00-7-0-7h8-|
      ... ...       ... ...       ... ...    .   ..   .

Chorus
|-----------------------------------------------------------------------------|
|-----------------------------------------------------------------------------|
|-----------------------------------------------------------------------------|
|---8--8--10-7-7-5-7--10--10--8-7-7-5-7--8--8--10-7-7-5-7--12--12--10-8-8-7-8-|
|-0---------------------------------------------------------------------------|
|-0--00-00--0-0-0-0-----00--00-0-0-0------00-00--0-0-0-0-----00--00--0-0-0----|
     .. ..  . . . .     ..  .. . . .      .. ..  . . . .     ..  ..  . . .

Breakdown Intro
|-----------------------------------------------------------------|
|-----------------------------------------------------------------|
|-----------------------------------------------------------------|
|-----------------------------------------------------------------|
|---------------------------------000-----------------------------|
|-000-000-000-000-000-000-000-000-000-000-000-000-000-000-000-000-|
  ... ... ... ... ... ... ... ... ... ... ... ... ... ... ... ...
                                  *(guitar 2 comes in)

Breakdown!
|---------------------------------------------------------------|
|---------------------------------------------------------------|
|---------------------------------------------------------------|
|---------------------------------------------------------------|
|---------------------------------------------------------------|
|-000-000-000-0-0-000-000-000-0-0-000-000-000-0-0-8p7-0-3-0-2h3-|
  ... ... ... . . ... ... ... . . ... ... ... . .     .   .


END

  Visit MetalTabs.com for more metal tablature

bottom separator

Contact Us | Privacy Policy | Disclaimer | Legal Notice
Copyright © 2001-2014 MetalTabs.com. All Rights Reserved.