top separator

Home

Forum

What's New

Submit a Tab

FAQ

Links

Contact Us

Link to Us

MuSpy.com

MetalTabs.com logo

Bands

0-9

A

B

C

D

E

F

G

H

I

J

K

L

M

N

O

P

Q

R

S

T

U

V

W

X

Y

Z

Search

What

Where
 

Ahumado Granujo - "Boneyard (Impetigo cover)" Guitar Tab

Plain Text Version
More Ahumado Granujo Tabs

Hits: 2255
Updated: 2006-04-12 03:08:21

 

By:

Lord_Seth

sendpm.gif

email.gif

Important note
This tab is available online because we obtained explicit permission from Ahumado Granujo or their label.


#----------------------------------PLEASE NOTE---------------------------------#
#This file is the author's own work and represents their interpretation of the #
#song. You may only use this file for private study, scholarship, or research. #
#Unless specified otherwise, this is NOT an official tab from the band members.#
#------------------------------------------------------------------------------#

  Visit MetalTabs.com for more metal tablature
  
Band:  Ahumado Granujo
Album: Instrumenta Chirurgica
Song:  Boneyard (Impetigo)

Copyright (c) Bizarre Leprous Production  (1999)
Version 1.1 - 23/03/2006

Transcribed By: Lord Seth (Eugenio Lozano)
Email:          Iztlacoliuhqui@gmail.com

.  - palm mute           /  - slide up to
\  - slide down to       ~  - vibrato
h  - hammer on           b  - Bend
p  - pull off            Suffixes for bend
t  - tap                 f  - full bend    h - half bend
ph - pinched harmonic    q  - quarter bend t - tap bend
*  - see comment         ^  - Hold bend    r release bend
s  - Stuccatto           ~  - vibrato bend
,  - slight palm mute    () - ghost note, sustained note
"  - tremolo note        <> - Trill


Tuning B E A D F# B


  1st. Riff

|------------|
|------------|
|------------|
|----5-----3-|
|-2--3--5--1-|
|-0-----3----|x4



  2nd. Riff

|--------------------------------|
|--------------------------------|
|--------------------------------|
|----------5-5-5-----------3-3-3-|
|-2-2-2-2--3-3-3--5-5-5-5--1-1-1-|
|-0-0-0-0---------3-3-3-3--------|x8
  . . . .         . . . .


 3rd. Riff

|------------|
|------------|
|------------|
|----5-----6-|
|-2--3--5--4-|
|-0-----3----|x4


 4th. Riff

|-----------------------------------------------------------------|
|-----------------------------------------------------------------|
|-----------------------------------------------------------------|
|-----------------------------------------------------------------|
|-----------------------------------------------------------------|
|-0-0-0-0-0-0-0-0-0-0-0-0-0-0-0-0-0-0-0-0-0-0-0-0-0-0-0-0-0-0-0-0-|
  . . . . . . . . . . . . . . . . . . . . . . . . . . . . . . . .


 2nd. Riffx8

 3rd. Riffx4

 4th. Riff

 2nd. Riffx8

 3rd. Riffx4

 4th. Riff

 1st. Riffx4

 End

  Visit MetalTabs.com for more metal tablature

bottom separator

Contact Us | Privacy Policy | Disclaimer | Legal Notice
Copyright © 2001-2014 MetalTabs.com. All Rights Reserved.