top separator

Home

Forum

What's New

Submit a Tab

FAQ

Links

Contact Us

Link to Us

MuSpy.com

MetalTabs.com logo

Bands

0-9

A

B

C

D

E

F

G

H

I

J

K

L

M

N

O

P

Q

R

S

T

U

V

W

X

Y

Z

Search

What

Where
 

Rotting Christ - "Wolfera the Jackal" Guitar Tab

Plain Text Version
More Rotting Christ Tabs

Hits: 2674
Rated: 3.67 out of 5 (3 votes)
Updated: 2006-03-18 22:06:19

 

By:

sendpm.gif

email.gif

Important note
This tab is available online because we obtained explicit permission from Rotting Christ or their label.


#----------------------------------PLEASE NOTE---------------------------------#
#This file is the author's own work and represents their interpretation of the #
#song. You may only use this file for private study, scholarship, or research. #
#Unless specified otherwise, this is NOT an official tab from the band members.#
#------------------------------------------------------------------------------#

  Visit MetalTabs.com for more metal tablature
  
Copyright (c)  Unisound International (1994)
Version 1.0 - 2006-3-13

Transcribed By: Benjamin Gheysels
Email:          benjamingheysels@hotmail.com


.  - palm mute           /  - slide up to
\  - slide down to       ~  - vibrato
h  - hammer on           b  - Bend
p  - pull off            Suffixes for bend
t  - tap                 f  - full bend    h - half bend
ph - pinched harmonic    q  - quarter bend t - tap bend
*  - see comment         ^  - Hold bend    r release bend
x  - Stuccatto           ~  - vibrato bend
,  - slight palm mute    () - ghost note, sustained note
"  - tremolo note        <> - Trill

Tuning E A D G B E

Riff 1
|---------------------------------------------------------|
|---------------------------------------------------------|
|---------------------------------------------------------|
|--7h9hold----7h9-----------------------------------------|
|-----------------10--9-7----0-0h2-hold---0-0h2-2h5-5p2---|
|---------------------------------------------------------|

|-----------------------------------------------------------------|
|-----------------------------------------------------------------|
|-----------------------------------------------------------------|
|---9p-7p-4h5hold---9p-7p-4h5hold---------------------------------|
|-------------------------------------0-0h2-hold---0-0h2-2h5-5p2--|
|-----------------------------------------------------------------|


Riff 2 (1'03"): don't play note between brackets

|--(19)-----2----------------------------------------------------|
|-------------3-2-----------5-3-3-3hold---2h3-3------------------|
|-----------------4-4-2-2-4---------------------2-2-2-2h4-4p2----|
|--4----------------------------------------------------------4--|
|--2ring---------------------------------------------------------|
|----------------------------------------------------------------|

Riff 1 (1'32")

Riff 2 (2'01")

Riff 3 (2'30"): don't play note between brackets the first time
|----------------------------------------------------------|
|----------------------------------------------------------|
|------------------------(4)-------------------------------|
|----------------------------------------------------------|
|---9---------------------------9--------------------------|
|---7ring--7-7-7-7--5-5-5-5-----7ring--7-7-7-7--3-3--2-2---|
           . . . .  . . . .            . . . .  . .  . .

Riff 4 (2'59")
|--------------------------------------------|
|--------------------------------------------|
|--------------------------------------------|
|--------------------------------------------|
|--0h2hold--h5-p2hold----0-0h2-2h5-5p2-2-----|
|--------------------------------------------|

Riff 5 (3'12"): play chord between brackets only last time
|---------------------------------------------------------|
|---------------------------------------------------------|
|------------------------2-----------2--------------------|
|--5--4-2-4----5-4-2-4-----5-4-5-4-2---5-4----------------|
|--------------------------------------------5-7-(9-------|
|--------------------------------------------3-5-(7-7-7)--|
                                                    . .

Solo (3'39"): I couldn't really tell what notes are being played at the
              start, but I think it's something like this.
|-------------------------------------------------------|
|---------------------------------------10-12-10-12hold-|
|-------------------------------9-11-12-----------------|
|-----------------------9-11-12-------------------------|
|---------------9-10-12---------------------------------|
|---7-7-9-10-12-----------------------------------------|
    . . . .  .  . .  .  . .  .  . .  .

|------------------------------------------------------|
|---12hold-10------------------------------------------|
|-------------9h11--------------7hold-------------11---|
|------------------9hold----9-7-------7-9--------------|
|-----------------------------------------7h9hold------|
|------------------------------------------------------|

(not sure about the palm muted bit)
|--------------------------------------------------------|
|--------------------------------------------------------|
|---11-11h12---------------------------------------------|
|------------12-11-9-7/9hold----9-11-12-11-9--9-11-12-9--|
|--------------------------------------------------------|
|--------------------------------------------------------|
                                . .  .  .  .  .  .  . .

|----------------------------------------------------|
|---10-12hold----12h14h15-14p12\10/12----------------|
|-------------------------------------11p9h11hold----|
|----------------------------------------------------|
|----------------------------------------------------|
|----------------------------------------------------|

(not sure about the palm muted bit)
|--------------------------------------------------------------------------|
|--------------------------------------------------------------------------|
|11-9/12hold-11-------------------------9-11-11p9--------------------------|
|--------------11-12-11--------9-9-11-12----------12p11--12-11-11-9-9hold--|
|-----------------------12-14----------------------------------------------|
|--------------------------------------------------------------------------|
                               . .  .  . . .

(not sure about the palm muted bit)
|-----------------------------------|
|-----------------------------------|
|-------------9----9-11-9-----------|
|---9-9-11-12---12--------12hold----|
|-----------------------------------|
|-----------------------------------|
    . . .  .  . .  . .  .

Riff 6 (4'10")
|-----------------------------------------|
|-----------------------------------------|
|-----------------------------------------|
|-----------------------------------------|
|---5-5-5-5--4-4-4-4----------------------|
|---------------------5-7-7-7-7--5-5-5----|
    . . . .  . . . .  . . . . .  . . .

Riff 7 (4'51"): play this twice
|------------------------------------------------------------------------|
|------------------------------------------------------------------------|
|-5p4--4-----------------------------------------------------------------|
|----7-----5p4-4---7p5p4h5---5p4------7p5p4h5---5p4----------------------|
|-------------7-----------------7p5----------------7p-----5p4-------4h5--|
|----------------------------------------------------7--------7-5h7------|

Riff 6 (5'04")

Riff 7 (5'25")

Riff 1 (5'39")

Riff 2 (6'37"). Now play the note between brackets (only the first time)

end with:
|---------|
|---------|
|---------|
|---4-----|
|---2-----|
|---------|


That's it! Enjoy!

  Visit MetalTabs.com for more metal tablature

bottom separator

Contact Us | Privacy Policy | Disclaimer | Legal Notice
Copyright © 2001-2014 MetalTabs.com. All Rights Reserved.