top separator

Home

Forum

What's New

Submit a Tab

FAQ

Links

Contact Us

Link to Us

MetalTabs.com logo

Bands

0-9

A

B

C

D

E

F

G

H

I

J

K

L

M

N

O

P

Q

R

S

T

U

V

W

X

Y

Z

Search

What

Where
 

Stormtroopers Of Death - "Pussywhipped" Guitar Tab

Plain Text Version
More Stormtroopers Of Death Tabs

Hits: 4300
Rated: 4.00 out of 5 (1 vote)
Updated: 2006-03-18 22:03:11

 

By:

crowley_67

sendpm.gif

email.gif

Important note
We did our best to reach Stormtroopers Of Death and ask for their permission to publish this tab. Unfortunately they did not respond to our requests or we could not find a way to contact them. This tab is available online until Stormtroopers Of Death tells us to take it down.


#----------------------------------PLEASE NOTE---------------------------------#
#This file is the author's own work and represents their interpretation of the #
#song. You may only use this file for private study, scholarship, or research. #
#Unless specified otherwise, this is NOT an official tab from the band members.#
#------------------------------------------------------------------------------#

  Visit MetalTabs.com for more metal tablature
  
Stormtroopers Of Death
Speak English Or Die
Pussywhipped

Copyright (c)  Megaforce Records 1985


Transcribed By: 40oz
crowley_67@yahoo.com


.  - palm mute           /  - slide up to
\  - slide down to       ~  - vibrato
h  - hammer on           b  - Bend
p  - pull off            Suffixes for bend
t  - tap                 f  - full bend    h - half bend
ph - pinched harmonic    q  - quarter bend t - tap bend
*  - see comment         ^  - Hold bend    r release bend
x  - Stuccatto           ~  - vibrato bend
,  - slight palm mute    () - ghost note, sustained note
"  - tremolo note        <> - Trill

Tuning E A D G B E


 gtr 1                                   8x
|------------------------------------------|
|------------------------------------------|
|----------------4------3------------------|
|--2---2-4-5-4-5------3-----------3--------|
|----2--------------1-----3-5-3-5----------|
|------------------------------------------|
|                                        |
|                                          |
|gtr 2                                     |
|------------------------------------------|
|------------------------------------------|
|------------------------------------------|
|--------------4---3-----------------------|
|-2------------2---1-----------------------|
|-0----------------------------------------|




---------------|
---------------|
---------------|
-2-------(2)---|
-2-------(2)---|
-0-------(0)---|


                                8x
-----------------------------------|
-----------------------------------|
-----------------------------------|
--7/9---7/9---7/9------------------|
--5/7---5/7---5/7----8-8-8---------|
---------------------6-6-6---------|




                                                     2x
---------------------------------------------------------|
---------------------------------------------------------|
---------------------------------------------------------|
------------------------3--------------------------------|
------------------------1--------------------------------|
-0--0-0-0--0-0-0--0-0-0---0--0-0-0--0-0-6-6-5-6-9-6-5----|




----------------|
----------------|
----------------|
--2--------9----|
--2--------7----|
--0-------------|

                                 8x
-----------------------------------|
-----------------------------------|
-----------------------------------|
--7/9---7/9---7/9------------------|
--5/7---5/7---5/7----8-8-8---------|
---------------------6-6-6---------|


                                                              2x
---------------------------------------------------------------|
---------------------------------------------------------------|
---------------------------------------------------------------|
----------------------------3----------------------------------|
----------------------------1----------------------------------|
-0--0-0--0--0-0--0--0-0--0----0--0-0--0--0-0-6-6-5-6-9-5-6-0---|



------------------------------------------------------------|
------------------------------------------------------------|
------------------------------------------------------------|
---------9--9-----------9--9-----------9--9----------9--9---|
-2--2----7--7--2--2-----7--7---2--2----7--7--2--2----7--7---|
-0--0--0-------0--0---0--------0--0--0-------0--0--0--------|


-----------------------------------------------------|
-----------------------------------------------------|
-----------------------------------------------------|
-----------------------4-3-----9--------------4-3----|
-2------2-----4-3------2-1-----7-----4-3------2-1----|
-0--0-0-0-0-0-2-1--0-0-----0-0---0-0-2-1-0-0---------|



-------------------------------------------------------|
-------------------------------------------------------|
-------------------------------------------------------|
-----10--------------4-3-----11-------------4-3--------|
-----8-------4-3-----2-1-----9-----4-3------2-1--------|
-0-0----0-0--2-1-0-0-----0-0---0-0-2-1-0-0------0-0----|



-----------------------------------------------------|
-----------------------------------------------------|
-----------------------------------------------------|
-9-------------4-3-------10---------------4-3--------|
-7-----4-3-----2-1-------8------4-3-------2-1--------|
---0-0-2-1-0-0------0-0-----0-0-2-1---0-0-----0-0----|



-------------------------------------------------|
-------------------------------------------------|
-------------------------------------------------|
-11-------------4-3-----9-------------4----------|
-9------4-3-----2-1-----7-----4-3-----2----------|
----0-0-2-1-0-0-----0-0---0-0-2-1-0-0------------|


                                 8x
-----------------------------------|
-----------------------------------|
-----------------------------------|
--7/9---7/9---7/9------------------|
--5/7---5/7---5/7----8-8-8---------|
---------------------6-6-6---------|


                                                             2x
---------------------------------------------------------------|
---------------------------------------------------------------|
---------------------------------------------------------------|
----------------------------3----------------------------------|
----------------------------1----------------------------------|
-0--0-0--0--0-0--0--0-0--0----0--0-0--0--0-0-6-6-5-6-9-5-6-0---|



-----------------------------------|
-----------------------------------|
-----------------------------------|
---9-----------2-------------------|
---7-----------2-------------------|
---------------0-------------------|

  Visit MetalTabs.com for more metal tablature

bottom separator

Contact Us | Privacy Policy | Disclaimer | Legal Notice
Copyright © 2001-2014 MetalTabs.com. All Rights Reserved.