top separator

Home

Forum

What's New

Submit a Tab

FAQ

Links

Contact Us

Link to Us

MetalTabs.com logo

Bands

0-9

A

B

C

D

E

F

G

H

I

J

K

L

M

N

O

P

Q

R

S

T

U

V

W

X

Y

Z

Search

What

Where
 

Deadborn - "Codemned To Perdition" Guitar Tab

Plain Text Version
More Deadborn Tabs

Hits: 1836
Rated: 5.00 out of 5 (1 vote)
Updated: 2006-03-18 22:02:22

 

By:

Meesh

sendpm.gif

email.gif

Important note
This tab is available online because we obtained explicit permission from Deadborn or their label.


#----------------------------------PLEASE NOTE---------------------------------#
#This file is the author's own work and represents their interpretation of the #
#song. You may only use this file for private study, scholarship, or research. #
#Unless specified otherwise, this is NOT an official tab from the band members.#
#------------------------------------------------------------------------------#

  Visit MetalTabs.com for more metal tablature
  
Band:  DEADBORN
Album: Decades of Decapitation
Song:  Condemned to Perdition

Copyright (c) 2004

Music Written by Mario Petrovic/Slavek Foltyn

Score Transcribed by Mischa Antohe

Comments and corrections may be sent to demon_meesh@hotmail.com

NOTE: DO NOT be poaching this tab from metaltabs.com for use somewhere else.


PM|- = Palm Mute
b    = Bend
h    = Hammer on
p    = Pull off
[]   = Artificial Harmonic
~    = vibrato
s    = Slide
()   = Tied Notes (Ignore them)
$    = Segno
&    = Coda

Tuning - All Strings 1 Step Down - D G C F A D.

 Intro - 0:01
  Q=230
 4/4
  Gtr I
      PM----|       PM--------------------|
|--------------|----------------------------|
|--------------|----------------------------|
|-8------------|----------------------------|
|-4--/8--6--6--|-8--------------------------|
|-6--/9--8--4--|-6--------------------------|
|--------------|----5-5-5-5-6-6-6-6-9-9-9-9-|
|
| Gtr II
|     PM---|  PM
|--------------|----------------------------|
|--------------|----------------------------|
|-8------------|-8--------------------------|
|-4--/8--6--6--|-4--------------------------|
|-6--/9--8--4--|-6------------------6---6---|
|--------------|----------------------------|


     PM--------------------|      PM--------------------|
|----------------------------|-------------------------------|
|----------------------------|-------------------------------|
|----------------------------|-------------------------------|
|-4--------------------------|-4-----------------------------|
|-6--------------------------|-6-----------------------------|
|----5-5-5-5-6-6-6-6-9-9-9-9-|----5-5-5-5-6-6-6-6-9-9-9-9----|
|
|----------------------------|-------------------------------|
|----------------------------|-------------------------------|
|-8--------------------------|-8-----------------------------|
|-4--------------------------|-4-----------------------------|
|-6------------------6---6---|-6------------------6---6------|
|----------------------------|-------------------------------|


   Section 1
    Gtrs I, II
        PM----|       PM--------------------|
||---------------|----------------------------|
||o--------------|----------------------------|
||---------------|-8--------------------------|
||--4--/8--6--6--|-4--------------------------|
||o-6--/9--8--4--|-6--------------------------|
||---------------|----5-5-5-5-6-6-6-6-9-9-9-9-|


     PM--------------------|      PM--------------------|
|----------------------------|-----------------------------||
|----------------------------|----------------------------o||
|-8--------------------------|-8---------------------------||
|-4--------------------------|-4---------------------------||
|-6--------------------------|-6--------------------------o||
|----5-5-5-5-6-6-6-6-9-9-9-9-|----5-5-5-5-6-6-6-6-9-9-9-9--||


        PM PM PM      PM---------------------------|
||---------------|------------------------------------|
||o--------------|------------------------------------|
||--8------------|-8----------------------------------|
||--4--/8--6--6--|-4----------------------------------|
||o-6--/9--8--4--|-6----------------------------------|
||---------------|----7-7-7-7-10-10-10-10-10-10-10-10-|


     PM---------------------------|       PM---------------------------|
|------------------------------------|-------------------------------------||
|------------------------------------|------------------------------------o||
|-8----------------------------------|-8-----------------------------------||
|-4----------------------------------|-4-----------------------------------||
|-6----------------------------------|-6----------------------------------o||
|----7-7-7-7-10-10-10-10-10-10-10-10-|----7-7-7-7-10-10-10-10-10-10-10-10--||


      PM----|         PM----------|
|--------------||-------------------|
|--------------||o------------------|
|-8------------||--9----------------|
|-4--/8--6--6--||--5----------------|
|-6--/9--8--4--||o-7----------------|
|--------------||-----6-6-10-7-10-7-|


     PM-----------------------|         PM----------|
                                  3x
|---------------------------------||------------------|
|--------------------------------o||------------------|
|-9-------------------------------||-9----------------|
|-5-------------------------------||-5----------------|
|-7------------------------------o||-7----------------|
|----6-6-6-6-7-7-7-7-10-10-10-10--||----6-6-10-7-10-7-|


                 Guitar Solo 1 - 0:31
                Gtr III
       PM---|
|---------------|----15-------15-----------15---17h18p17----15----------|
|---------------|-15----15-15------15---15------------------------15----|
|-9-------------|-------------------------------------------------------|
|-5---/9--7--7--|-------------------------------------------------------|
|-7--/10--9--5--|-------------------------------------------------------|
|---------------|-------------------------------------------------------|
|
| Gtr II        Gtrs I, II
|      PM----|              PM---------------------------------------|
|---------------|-------------------------------------------------------|
|---------------|-------------------------------------------------------|
|-9-------------|--9----------------------------------------------------|
|-5---/9--7--7--|--5----------------------------------------------------|
|-7--/10--9--5--|--7----------------------------------------------------|
|---------------|-----------6----6--6-6--7----7--7--7-10-10----10----10-|


|----15-------15-----------15---17h18p17----15------------|
|-15----15-15------15---15------------------------15------|
|---------------------------------------------------------|
|---------------------------------------------------------|
|---------------------------------------------------------|
|---------------------------------------------------------|
|
|           PM---------------------------------------|
|---------------------------------------------------------|
|---------------------------------------------------------|
|--9------------------------------------------------------|
|--5------------------------------------------------------|
|--7------------------------------------------------------|
|-----------6----6--6-6--7----7--7--7-10-10----10----10---|


|--------------------------------------------------|
|----16----16---------------16---18-19-18----16----|
|-15----15------15-----(15)---------------------15-|
|--------------------------------------------------|
|--------------------------------------------------|
|--------------------------------------------------|
|
|           PM-----------------------------------|
|--------------------------------------------------|
|--------------------------------------------------|
|--9-----------------------------------------------|
|--5-----------------------------------------------|
|--7-----------------------------------------------|
|-----------6-6----6-6-------7-7--7--7-10-10-10-10-|




|------15-17h18p-17-15-------15-17h18p17-15----|
|----------------------15-------------------15-|
|-(15)-----------------------------------------|
|----------------------------------------------|
|----------------------------------------------|
|----------------------------------------------|
|                 PM-------|           PM
|----------------------------------------------|
|----------------------------------------------|
|---9------------------------------------------|
|---5------------/9--------7-----------7-------|
|---7-----------/10--------9-----------5-------|
|----------------------------------------------|



|-----------------15---------------------------15-----------|
|-(15)-------15--------15---(15)---------15----------15-----|
|---------12--------------------------12--------------------|
|------12------------------------12-------------------------|
|-----------------------------------------------------------|
|-----------------------------------------------------------|
|
|               PM--------------------------------------|
|-----------------------------------------------------------|
|-----------------------------------------------------------|
|---9-------------------------------------------------------|
|---5-------------------------------------------------------|
|---7-------------------------------------------------------|
|---------------6----6--6-6---7-----7--7--7-10----10-10-10--|


|-----------------15-------------20---15-------------------15----|
|-(15)-------15--------15---(15)---------16----------16----------|
|---------12-----------------------------------17----------------|
|------12--------------------------------------------------------|
|----------------------------------------------------------------|
|----------------------------------------------------------------|
|
|               PM--------------------------------------------|
|----------------------------------------------------------------|
|----------------------------------------------------------------|
|---9------------------------------------------------------------|
|---5------------------------------------------------------------|
|---7------------------------------------------------------------|
|---------------6----6--6-6---7-----7--7--7-10----10----10----10-|


|----------15-----------------------------15-------------|
|-------15------15-----(15)---------15----------15-------|
|----12--------------------------12----------------------|
|-12------------------------12---------------------------|
|--------------------------------------------------------|
|--------------------------------------------------------|
|
|           PM-------------------------------------|
|--------------------------------------------------------|
|--------------------------------------------------------|
|--9-----------------------------------------------------|
|--5-----------------------------------------------------|
|--7-----------------------------------------------------|
|-----------6-6----6-6-------7-7--7--7-10----10-10-10----|


|-20-15--------------15--20---15-------------15-(15)----|
|-------16--------16-------------16-------16------------|
|----------17------------------------17-----------------|
|-------------------------------------------------------|
|-------------------------------------------------------|
|-------------------------------------------------------|
|
|               PM----------------------|
|-------------------------------------------------------|
|-------------------------------------------------------|
|--9----------------------------------------------------|
|--5-----------/9-----------7-----------7---------------|
|--7----------/10-----------9-----------5---------------|
|-------------------------------------------------------|


                                    \1________________________________
|-15------------------------------|-(15)-------------------------------|
|---------------------------------|------------------------------------|
|---------------------------------|------------------------------------|
|---------------------------------|------------------------------------|
|---------------------------------|------------------------------------|
|---------------------------------|------------------------------------|
|
|     PM-----------------------|           PM-----------------------|
|---------------------------------|------------------------------------|
|---------------------------------|------------------------------------|
|--9------------------------------|---9--------------------------------|
|--5------------------------------|---5--------------------------------|
|--7------------------------------|---7--------------------------------|
|-----6-6-6-6-7-7-7-7-10-10-10-10-|--------6-6-6-6-7-7-7-7-10-10-10-10-|


    ~~~~~~~~~~~~~~~~~~~~~~~~~~~~~~~~~~~~~~~
|-(15)------------------------------|-(15)--------------|
|-----------------------------------|-------------------|
|-----------------------------------|-------------------|
|-----------------------------------|-------------------|
|-----------------------------------|-------------------|
|-----------------------------------|-------------------|
|
|       PM-----------------------|            PM-|  PM
|-----------------------------------|-------------------|
|-----------------------------------|-------------------|
|---9-------------------------------|---9---------------|
|---5-------------------------------|---5----/9--7--7---|
|---7-------------------------------|---7---/10--9--5---|
|-------6-6-6-6-7-7-7-7-10-10-10-10-|-------------------|


   Section 2 - 0:44
   2/2
    Gtrs I, II
       PM-----------------------|       PM-----------------------|
||---------------------------------|--------------------------------|
||o--------------------------------|--------------------------------|
||--9------------------------------|-9------------------------------|
||--5------------------------------|-5------------------------------|
||o-7------------------------------|-7------------------------------|
||-----6-6-6-6-7-7-7-7-10-10-10-10-|----6-6-6-6-7-7-7-7-10-10-10-10-|


     PM-----------------------|         PM----|
                                                    3x
|--------------------------------|------------------||
|--------------------------------|-----------------o||
|-9------------------------------|-9----------------||
|-5------------------------------|-5---/9--7--7-----||
|-7------------------------------|-7--/10--9--5----o||
|----6-6-6-6-7-7-7-7-10-10-10-10-|------------------||


 4/4
     PM----------|      PM----------|      PM----------|        PM-|  PM
|------------------|------------------|------------------|---------------|
|------------------|------------------|------------------|---------------|
|-9----------------|-9----------------|-9----------------|-9-------------|
|-5----------------|-5----------------|-5----------------|-5---/9--7--7--|
|-7----------------|-7----------------|-7----------------|-7--/10--9--5--|
|----6-6-10-7-10-7-|----6-6-10-7-10-7-|----6-6-10-7-10-7-|---------------|


     PM-----------------------|       PM-----------------------|
|--------------------------------|--------------------------------|
|--------------------------------|--------------------------------|
|-9------------------------------|-9------------------------------|
|-5------------------------------|-5------------------------------|
|-7------------------------------|-7------------------------------|
|----6-6-6-6-7-7-7-7-10-10-10-10-|----6-6-6-6-7-7-7-7-10-10-10-10-|


     PM-----------------------|         PM----|
|--------------------------------|----------------|
|--------------------------------|----------------|
|-9------------------------------|-9--------------|
|-5------------------------------|-5---/9--7--7---|
|-7------------------------------|-7--/10--9--5---|
|----6-6-6-6-7-7-7-7-10-10-10-10-|----------------|


 Section 3A (Slow) - 1:05
  Q=125
  Gtr I
    PM----------|   PM-----------------|   PM----------|
|--------------------------------|---------------------------------|
|--------------------------------|---------------------------------|
|-9---------------9--------------|-------9-------------------------|
|-5---------------5--------------|-------5---------------5-----4---|
|-7-2-2-2-2-2-2-2-7-2-2-2-2-2-2--|-(2)-2-7-2-2-2-2-2-2-2-7-----6---|
|---0-0-0-0-0-0-0---0-0-0-0-0-0--|-(0)-0---0-0-0-0-0-0-0-----------|
|
| Gtr II
|                                                        PM---------
|--------------------------------|---------------------------------|
|--------------------------------|---------------------------------|
|--------------------------------|---------------------------------|
|-5------------------------------|-----------------------5-5-5---4-|
|-7------------------------------|-----------------------7-7-7---6-|
|-0------------------------------|---------------------------------|


 17/16
                                                  PM----|
|---------------------------------------------------------|
|---------------------------------------------------------|
|-----------------------------------------------9---------|
|-(4)---5----9-------------7------5------4------5---------|
|-(6)---7---10-------------9------7------6------7-2-2-2-2-|
|-------------------------------------------------0-0-0-0-|
|
|----------------------------------------------|
|---------------------------------------------------------|
|---------------------------------------------------------|
|---------------------------------------------------------|
|-(4)-4---5-(5)---/9--(9)--7-(7)--5-(5)--4-(4)--5---------|
|-(6)-6---7-(7)--/10-(10)--9-(9)--7-(7)--6-(6)--7---------|
|-----------------------------------------------0---------|


 4/4
  PM--|    PM----------|   PM------------------------------
|----------------------------|----------------------------|
|----------------------------|----------------------------|
|--------9---------------9---|----------------------------|
|--------5---------------5---|----------------8---------8-|
|-2-2-2--7-2-2-2-2-2-2-2-7-2-|-2-2-2-2-2-2--7---7---------|
|-0-0-0----0-0-0-0-0-0-0---0-|-0-0-0-0-0-0--------0-6-7---|
|
|                                           PM-------------
|----------------------------|----------------------------|
|----------------------------|----------------------------|
|----------------------------|----------------------------|
|--------5---------------5---|----------------8---------8-|
|--------7---------------7---|--------------7---7---------|
|--------0---------------0---|--------------------0-6-7---|


                 $
 -----------|      PM--------|
|--------------------------------|
|--------------------------------|
|-----9-------10-9---------------|
|-(8)---8---9----5---------------|
|---------7------7-2-2-2-2-2-2---|
|------------------0-0-0-0-0-0---|
|
|-----------|      PM--------|
|--------------------------------|
|--------------------------------|
|-----9-------10-----------------|
|-(8)---8---9----5---------------|
|---------7------7-2-2-2-2-2-2---|
|----------------0-0-0-0-0-0-0---|


  PM  PM----------|   PM---------
|-------------------------------|
|-------------------------------|
|---9---------------9-----------|
|---5---------------5-----------|
|-2-7-2-2-2-2-2-2-2-7-2-2-2-2-2-|
|-0---0-0-0-0-0-0-0---0-0-0-0-0-|
|
| PM  PM----------|   PM---------
|-------------------------------|
|-------------------------------|
|-------------------------------|
|---5---------------5-----------|
|-2-7-2-2-2-2-2-2-2-7-2-2-2-2-2-|
|-0-0-0-0-0-0-0-0-0-0-0-0-0-0-0-|


 -------|                             PM----------|
|-------------------------|-----------------------------|
|-------------------------|-----------------------------|
|-------------------------|---------9---------------9---|
|---------5--(5)-4-5--9-7-|-(7)-5-4-5---------------5---|
|-(2)-2-2-7--(7)-6-7-10-9-|-(9)-7-6-7-2-2-2-2-2-2-2-7---|
|-(0)-0-0-----------------|-----------0-0-0-0-0-0-0-----|
|
|-------|                             PM----------|
|-------------------------|-----------------------------|
|-------------------------|-----------------------------|
|-------------------------|-----------------------------|
|---------5--(5)-4-5--9-7-|-(7)-5-4-5---------------5---|
|-(2)-2-2-7--(7)-6-7-10-9-|-(9)-7-6-7-2-2-2-2-2-2-2-7---|
|-(0)-0-0-----------------|---------0-0-0-0-0-0-0-0-0---|


  PM----------|   PM-----------------------------------------
|-------------------------------|---------------------------|
|-------------------------------|---------------------------|
|---------------9---------------|-------------------9-------|
|---------------5---------------|-------8---------8---8---9-|
|-2-2-2-2-2-2-2-7-2-2-2-2-2-2-2-|-(2)-7---7-------------7---|
|-0-0-0-0-0-0-0---0-0-0-0-0-0-0-|-(0)-------0-6-7-----------|
|
| PM----------|   PM-----------------------------------------
|-------------------------------|---------------------------|
|-------------------------------|---------------------------|
|-------------------------------|-------------------9-------|
|---------------5---------------|-------8---------8---8---9-|
|-2-2-2-2-2-2-2-7-2-2-2-2-2-2-2-|-(2)-7---7-------------7---|
|-0-0-0-0-0-0-0-0-0-0-0-0-0-0-0-|-(0)-------0-6-7-----------|


 -|        PM----------|   PM----|
|------------------------------------|
|------------------------------------|
|-----10-9---------------9-----------|
|-(9)----5---------------5-----------|
|--------7-2-2-2-2-2-2-2-7-2-2-2-2---|
|----------0-0-0-0-0-0-0---0-0-0-0---|
|
|-|        PM----------|   PM----|
|------------------------------------|
|------------------------------------|
|-----10-----------------------------|
|-(9)----5---------------5-----------|
|--------7-2-2-2-2-2-2-2-7-2-2-2-2---|
|--------0-0-0-0-0-0-0-0-0-0-0-0-0---|


                                                   D.S.
  PM--|   PM--------------------------------------|
|---------------------------|-----------------------------|
|---------------------------|-----------------------------|
|-------9-------------------|---------------9-------10----|
|-------5-----------------8-|-(8)---------8---8---9-----5-|
|-2-2-2-7-2-2-2-2-2-2-2-7---|-----7-------------7-------7-|
|-0-0-0---0-0-0-0-0-0-0-----|-------0-6-7-----------------|
|
| PM--|   PM--------------------------------------|
|---------------------------|-----------------------------|
|---------------------------|-----------------------------|
|---------------------------|---------------9-------10----|
|-------5-----------------8-|-(8)---------8---8---9-------|
|-2-2-2-7-2-2-2-2-2-2-2-7---|-----7-------------7-------7-|
|-0-0-0-0-0-0-0-0-0-0-0-----|-------0-6-7---------------0-|


                            3/8
        PM-------|     PM------------|
|--------------------------|------------|
|--------------------------|------------|
|---------9--------9-9-----|------------|
|-(5)---9---9----8---5-----|------------|
|-(7)----------------7-2-2-|-2-2-2-2-2--|
|-------------6--------0-0-|-0-0-0-0-0--|
|
|                      PM------------|
|--------------------------|------------|
|--------------------------|------------|
|--------------------------|------------|
|--------------------5-----|------------|
|-(7)----------------7-2-2-|-2-2-2-2-2--|
|-(0)----------------0-0-0-|-0-0-0-0-0--|


 4/4
    PM----------|   PM----------------|
|-------------------------------|-----------------------------|
|-------------------------------|-----------------------------|
|-9---------------9-------------|-----------------------------|
|-5---------------5-------------|-------5--(5)-4-5--9-7-(7)-5-|
|-7-2-2-2-2-2-2-2-7-2-2-2-2-2-2-|-(2)-2-7--(7)-6-7-10-9-(9)-7-|
|---0-0-0-0-0-0-0---0-0-0-0-0-0-|-(0)-0-----------------------|
|
|   PM----------|   PM----------------|
|-------------------------------|-----------------------------|
|-------------------------------|-----------------------------|
|-------------------------------|-----------------------------|
|-5---------------5-------------|-------5--(5)-4-5--9-7-(7)-5-|
|-7-2-2-2-2-2-2-2-7-2-2-2-2-2-2-|-(2)-2-7--(7)-6-7-10-9-(9)-7-|
|-0-0-0-0-0-0-0-0-0-0-0-0-0-0-0-|-(0)-0-----------------------|


                                   3/8
              PM----------|   PM------------|
|---------------------------------|-------------|
|---------------------------------|-------------|
|-----------9---------------9-----|-------------|
|-(5)-(5)-4-5---------------5-----|-------------|
|-(7)-(7)-6-7-2-2-2-2-2-2-2-7-2-2-|-2-2-2-2-2---|
|-------------0-0-0-0-0-0-0---0-0-|-0-0-0-0-0---|
|
|             PM----------|   PM------------|
|---------------------------------|-------------|
|---------------------------------|-------------|
|---------------------------------|-------------|
|-(5)-(5)-4-5---------------5-----|-------------|
|-(7)-(7)-6-7-2-2-2-2-2-2-2-7-2-2-|-2-2-2-2-2---|
|-----------0-0-0-0-0-0-0-0-0-0-0-|-0-0-0-0-0---|


 Section 3B - 1:57
 4/4
    PM--------------------------------------|    PM--------
|---------------------------|-----------------------------|
|---------------------------|-----------------------------|
|-9-------------------------|---------9-------10----------|
|-5-----------------8-------|-------8---8---9------8------|
|-7-2-2-2-2-2-2-2-7---7-----|-------------7------7---7----|
|---0-0-0-0-0-0-0-------0-6-|-(6)-7---------------------0-|
|
|   PM--------------------------------------|    PM--------
|---------------------------|-----------------------------|
|---------------------------|-----------------------------|
|---------------------------|---------9-------10----------|
|-5-----------------8-------|-------8---8---9-------------|
|-7-2-2-2-2-2-2-2-7---7-----|-------------7------------10-|
|-0-0-0-0-0-0-0-0-------0-6-|-(6)-7--------------6-7-8----|


 --------------------|   PM|
|-----------------------------|
|-----------------------------|
|-------------10-------8------|
|-----------9----9---7-----8--|
|------------------------7----|
|--(0)-6--7--------6----------|
|
|--------------------------|
|-----------------------------|
|-----------------------------|
|-----------------------------|
|-----------------------------|
|-(10)---10-------------------|
|------9----7--8-6-0-6-0-6-7--|


  PM--------|    PM----|             PM---------------------------------------
|--------------------------|-------------------------------------------------|
|--------------------------|-------------------------------------------------|
|-------------10-------8-9-|-(9)-(9)---------------------------6-------------|
|-----------9----9---7---5-|-(5)-(5)---------8-------------------------------|
|-7----------------------7-|-(7)-(7)---6-----------7-----9-----------9---6-7-|
|----0-6--7--------6-------|---------0---------------------------------------|
|
| PM-------------------|             PM----------------------------------|
|--------------------------|-------------------------------------------------|
|--------------------------|-------------------------------------------------|
|------------------------5-|-(5)-(5)-----------------------------------------|
|------------------------5-|-(5)-(5)---------------------------------------5-|
|---10---10--------------7-|-(7)-(7)-------------------------------------6---|
|-8----9----7--8-6-0-6-0---|---------0-4-4-4---4-4---4-7---7-7-7-7-7---7-----|


 -----|   PM--------------------------------|
|----------------------------------------------|
|----------------------------------------------|
|-------9-------------------------6------------|
|-9---8---------8------------------------------|
|---7-----6-----------7-----9-----------9---6--|
|----------------------------------------------|
|
| PM----------------------------------------|
|----------------------------------------------|
|----------------------------------------------|
|-4--------------------------------------------|
|----------------------------------------------|
|-------------------------------------------6--|
|---7-6-4-4-4-4---4-4---4-7---7-7-7-7-7---7----|


   PM-------|          PM----------------------------
|--------------------------|------------------------|
|--------------------------|------------------------|
|-------------9-9--(9)-9---|----------------------9-|
|-------9---8---5--(5)---9-|-----------10-----7-----|
|-(6)-7---7-----7--(7)-----|-7---7-6-9----9-6---7---|
|--------------------------|---0--------------------|
|
|  PM---------|        PM----------------------------
|--------------------------|------------------------|
|--------------------------|------------------------|
|-------4-------5--(5)-----|------------------------|
|-----5---------5--(5)---8-|------------------7-----|
|-(6)-----------7--(7)-7---|-7-7--------7---6---6-7-|
|---------7-6-4-0--(0)-----|---0-0-0-6----6---------|


 ----------------------------------|         PM--------------|
|--------------------------------|-------------------------------|
|--------------------------------|-------------------------------|
|-(9)----------------------------|--------------9-------10-------|
|-----9---------------10-----7---|-----[7]--(7)---9--------9-----|
|-------7---7-6-----9----9-6---7-|-(7)--------------7---------7--|
|---------0----------------------|--------------------7----------|
|
|------------------------------------------------------------|
|--------------------------------|-------------------------------|
|--------------------------------|-------------------------------|
|--------------------------------|-------------------------------|
|-----8----------------------7---|------5---(5)------------------|
|-(7)---7-7-----(7)----7---6---6-|-(6)--7---(7)-7---7----8---10--|
|---------0-----(0)-6----6-------|----------------6---7----7-----|


    PM-------------------------------------------------------------------------
|----------------------------------|-------------------------------------------|
|----------------------------------|-------------------------------------------|
|------------------10--------11----|------------------11-----------------------|
|-------------8-------10--------10-|-(10)---------9----------11----------------|
|--(7)-----7-----7-------8---------|------8-----8---8---------------9----------|
|------7-6-----------------8-------|--------8-7----------------------------9---|
|
|      PM----------------------------------------------------------------------
|----------------------------------|-------------------------------------------|
|----------------------------------|-------------------------------------------|
|------------10--------------------|--------------9----------------------------|
|----------9--------9--------10----|------8-----8---8--------------------------|
|-(10)----------10-----8---9----10-|-(10)---7-------------------------10-10-10-|
|------9-6---------------7---------|----------6--------7-7-7----7-7-7----------|


 17/16
 ----------------------------------|
|----------------------------------------|
|----------------------------------------|
|-12---------------------------------9---|
|----------11-------------------10---5---|
|------------------9-(9)------9----9-7---|
|-------------------------9-8------------|
|
|----------------------------------|
|----------------------------------------|
|----------------------------------------|
|----------------------------------------|
|---------------------------9------------|
|-10-10-10----(10)-------10---6------7---|
|------------------7-------------7-6-0---|


 Section 3A Repeated - 2:22
               $$
 4/4
  PM------|      PM-----------
|----------------------------|
|----------------------------|
|---9-------9--9-------------|
|-9---9---8----5-------------|
|--------------7-2-2-2-2-2-2-|
|-------6--------0-0-0-0-0-0-|
|
|                PM-----------
|----------------------------|
|----------------------------|
|----------------------------|
|--------------5-------------|
|--------------7-2-2-2-2-2-2-|
|--------------0-0-0-0-0-0-0-|


 -----|   PM----------|   PM----------------|
|-----------------------------------|------------------------|
|-----------------------------------|------------------------|
|-------9---------------9-----------|------------------------|
|-------5---------------5-----------|---------5--(5)-4-5--9--|
|-(2)-2-7-2-2-2-2-2-2-2-7-2-2-2-2-2-|-(2)-2-2-7--(7)-6-7-10--|
|-(0)-0---0-0-0-0-0-0-0---0-0-0-0-0-|-(0)-0-0----------------|
|
|-----|   PM----------|   PM----------------|
|-----------------------------------|------------------------|
|-----------------------------------|------------------------|
|-----------------------------------|------------------------|
|-------5---------------5-----------|---------5--(5)-4-5--9--|
|-(2)-2-7-2-2-2-2-2-2-2-7-2-2-2-2-2-|-(2)-2-2-7--(7)-6-7-10--|
|-(0)-0-0-0-0-0-0-0-0-0-0-0-0-0-0-0-|-(0)-0-0----------------|


          PM----------|
|-------------------------|
|-------------------------|
|-------9---------------9-|
|-7-5-4-5---------------5-|
|-9-7-6-7-2-2-2-2-2-2-2-7-|
|---------0-0-0-0-0-0-0---|
|
|         PM----------|
|-------------------------|
|-------------------------|
|-------------------------|
|-7-5-4-5---------------5-|
|-9-7-6-7-2-2-2-2-2-2-2-7-|
|-------0-0-0-0-0-0-0-0-0-|


      PM----------|   PM------------------------------------|
|-----------------------------------|-------------------------|
|-----------------------------------|-------------------------|
|-(9)---------------9---------------|-------------------9-----|
|-(5)---------------5---------------|-------8---------8---8---|
|-(7)-2-2-2-2-2-2-2-7-2-2-2-2-2-2-2-|-(2)-7---7-------------7-|
|-----0-0-0-0-0-0-0---0-0-0-0-0-0-0-|-(0)-------0-6-7---------|
|
|     PM----------|   PM------------------------------------|
|-----------------------------------|-------------------------|
|-----------------------------------|-------------------------|
|-----------------------------------|-------------------9-----|
|-(5)---------------5---------------|-------8---------8---8---|
|-(7)-2-2-2-2-2-2-2-7-2-2-2-2-2-2-2-|-(2)-7---7-------------7-|
|-(0)-0-0-0-0-0-0-0-0-0-0-0-0-0-0-0-|-(0)-------0-6-7---------|


  PM|    PM----------|   PM-------
|--------------------------------|
|--------------------------------|
|---10-9---------------9---------|
|-9----5---------------5---------|
|------7-2-2-2-2-2-2-2-7-2-2-2-2-|
|--------0-0-0-0-0-0-0---0-0-0-0-|
|
| PM|    PM----------|   PM-------
|--------------------------------|
|--------------------------------|
|---10---------------------------|
|-9----5---------------5---------|
|------7-2-2-2-2-2-2-2-7-2-2-2-2-|
|------0-0-0-0-0-0-0-0-0-0-0-0-0-|


                                                     D.S.S.
 ---------|   PM----------------------------------------|
|-------------------------------|---------------------------|
|-------------------------------|---------------------------|
|-----------9-------------------|---------------9-------10--|
|-----------5-----------------8-|-(8)---------8---8---9-----|
|-(2)-2-2-2-7-2-2-2-2-2-2-2-7---|-----7-------------7-------|
|-(0)-0-0-0---0-0-0-0-0-0-0-----|-------0-6-7---------------|
|
|---------|   PM----------------------------------------|
|-------------------------------|---------------------------|
|-------------------------------|---------------------------|
|-------------------------------|---------------9-------10--|
|-----------5-----------------8-|-(8)---------8---8---9-----|
|-(2)-2-2-2-7-2-2-2-2-2-2-2-7---|-----7-------------7-------|
|-(0)-0-0-0-0-0-0-0-0-0-0-0-----|-------0-6-7---------------|


 Bass Break - 2:55  Section 1 Repeated
                    Q=230
 6/4                   4/4
  Gtrs I, II
                            PM----|       PM--------------------|
|-------------------||---------------|----------------------------|
|-------------------||o--------------|----------------------------|
|-8-----8-----8-----||---------------|-8--------------------------|
|-4-----4-----4-----||--4--/8--6--6--|-4--------------------------|
|-6-----6-----6-----||o-6--/9--8--4--|-6--------------------------|
|-------------------||---------------|----5-5-5-5-6-6-6-6-9-9-9-9-|


     PM--------------------|      PM--------------------|
|----------------------------|--------------------------------||
|----------------------------|-------------------------------o||
|-8--------------------------|-8------------------------------||
|-4--------------------------|-4------------------------------||
|-6--------------------------|-6-----------------------------o||
|----5-5-5-5-6-6-6-6-9-9-9-9-|----5-5-5-5-6-6-6-6-9-9-9-9-----||


        PM PM PM      PM---------------------------|
||---------------|------------------------------------|
||o--------------|------------------------------------|
||---------------|-8----------------------------------|
||--4--/8--6--6--|-4----------------------------------|
||o-6--/9--8--4--|-6----------------------------------|
||---------------|----7-7-7-7-10-10-10-10-10-10-10-10-|


     PM---------------------------|       PM---------------------------|
|------------------------------------|-------------------------------------||
|------------------------------------|------------------------------------o||
|-8----------------------------------|-8-----------------------------------||
|-4----------------------------------|-4-----------------------------------||
|-6----------------------------------|-6----------------------------------o||
|----7-7-7-7-10-10-10-10-10-10-10-10-|----7-7-7-7-10-10-10-10-10-10-10-10--||


      PM----|         PM----------|      PM-----------------------|
                                                                       3x
|--------------||-------------------|----------------------------------||
|--------------||o------------------|---------------------------------o||
|--------------||--9----------------|-9--------------------------------||
|-8--/8--6--6--||--5----------------|-5--------------------------------||
|-6--/9--8--4--||o-7----------------|-7-------------------------------o||
|--------------||-----6-6-10-7-10-7-|----6-6-6-6-7-7-7-7-10-10-10-10---||


                                    Guitar Solo 2 - 3:25
  Gtr IV
                                      \0.25
     PM----------|        PM----|
|------------------|---------------|-------------------------------------|
|------------------|---------------|-15----------------------------------|
|-9----------------|-9-------------|-------------------------------------|
|-5----------------|-5---/9--7--7--|-------------------------------------|
|-7----------------|-7--/10--9--5--|-------------------------------------|
|----6-6-10-7-10-7-|---------------|-------------------------------------|
|
| Gtrs I, II
|    PM----------|        PM----|            PM-----------------------|
|------------------|---------------|-------------------------------------|
|------------------|---------------|-------------------------------------|
|-9----------------|-9-------------|--9----------------------------------|
|-5----------------|-5---/9--7--7--|--5----------------------------------|
|-7----------------|-7--/10--9--5--|--7----------------------------------|
|----6-6-10-7-10-7-|---------------|---------6-6-6-6-7-7-7-7-10-10-10-10-|


|--------------------------------------|
|-(15)---------------------------------|
|--------------------------------------|
|--------------------------------------|
|--------------------------------------|
|--------------------------------------|
|
|       PM-----------------------|
|--------------------------------------|
|--------------------------------------|
|---9----------------------------------|
|---5----------------------------------|
|---7----------------------------------|
|-------6-6-6-6-7-7-7-7-10-10-10-10----|


                                       |
                                       ~~
|-----------------------------------|----------------|
|-(15)------------------------------|-15-------------|
|-----------------------------------|----------------|
|-----------------------------------|----------------|
|-----------------------------------|----------------|
|-----------------------------------|----------------|
|
|       PM-----------------------|          PM----|
|-----------------------------------|----------------|
|-----------------------------------|----------------|
|---9-------------------------------|--9-------------|
|---5-------------------------------|--5---/9--7--7--|
|---7-------------------------------|--7--/10--9--5--|
|-------6-6-6-6-7-7-7-7-10-10-10-10-|----------------|


|---------------------12-------------------|
|------------------13----13----------------|
|---------------14----------14-------------|
|------------14----------------14----------|
|----12h15------------------------15p12----|
|-12---------------------------------------|
|
|        PM-----------------------------|
|------------------------------------------|
|------------------------------------------|
|--9---------------------------------------|
|--5---------------------------------------|
|--7---------------------------------------|
|--------6-6--6--6--7--7--7--7-10-10-10-10-|


|---------------------12-------------------|
|------------------13----13----------------|
|---------------14----------14-------------|
|------------14----------------14----------|
|----12h15------------------------15p12----|
|-12---------------------------------------|
|
|        PM-----------------------------|
|------------------------------------------|
|------------------------------------------|
|--9---------------------------------------|
|--5---------------------------------------|
|--7---------------------------------------|
|--------6-6--6--6--7--7--7--7-10-10-10-10-|


|-------------------16---------------------|
|----------------16------16----------------|
|-------------13------------13-------------|
|----------13------------------13----------|
|-10S11-14------------------------14p11----|
|------------------------------------------|
|
|        PM-----------------------------|
|------------------------------------------|
|------------------------------------------|
|--9---------------------------------------|
|--5---------------------------------------|
|--7---------------------------------------|
|--------6--6--6--6--7-7--7--7-10-10-10-10-|

|--------------------15h19-----------------|
|-----------------16-------16--------------|
|--------------15-------------15-----------|
|-----------16-------------------16--------|
|-13S14-18--------------------------18-----|
|--------------------------------------18--|
|
|        PM----------------------
|------------------------------------------|
|------------------------------------------|
|--9---------------------------------------|
|--5--------/9-----------7--------7--------|
|--7-------/10-----------9--------5--------|
|------------------------------------------|

   \0.25____________________________________________________________________
|--------------------------------------|-----------------------------------|
|-15-----------------------------------|-(15)------------------------------|
|--------------------------------------|-----------------------------------|
|--------------------------------------|-----------------------------------|
|--------------------------------------|-----------------------------------|
|--------------------------------------|-----------------------------------|
|
|          PM-----------------------|          PM-----------------------|
|--------------------------------------|-----------------------------------|
|--------------------------------------|-----------------------------------|
|--9-----------------------------------|---9-------------------------------|
|--5-----------------------------------|---5-------------------------------|
|--7-----------------------------------|---7-------------------------------|
|----------6-6-6-6-7-7-7-7-10-10-10-10-|-------6-6-6-6-7-7-7-7-10-10-10-10-|


                                |
    ~~~~
|---------------------------------------|
|-(15)------------------------(15)------|
|---------------------------------------|
|---------------------------------------|
|---------------------------------------|
|---------------------------------------|
|
|       PM-------------------------|
|---------------------------------------|
|---------------------------------------|
|---9-----------------------------------|
|---5-----------------------------------|
|---7-----------------------------------|
|-------6-6-6-6-7-7-7-7-10-10--10--10---|


  Outro - 3:38
  Gtrs I, II
       PM----|       PM-----------------------|
|---------------|--------------------------------|
|---------------|--------------------------------|
|-9-------------|-9------------------------------|
|-5---/9--7--7--|-5------------------------------|
|-7--/10--9--5--|-7------------------------------|
|---------------|----6-6-6-6-7-7-7-7-10-10-10-10-|


     PM-----------------------|
|--------------------------------|
|--------------------------------|
|-9------------------------------|
|-5------------------------------|
|-7------------------------------|
|----6-6-6-6-7-7-7-7-10-10-10-10-|


     PM-----------------------|         PM----|
|--------------------------------|---------------|
|--------------------------------|---------------|
|-9------------------------------|-9-------------|
|-5------------------------------|-5---/9--7--7--|
|-7------------------------------|-7--/10--9--5--|
|----6-6-6-6-7-7-7-7-10-10-10-10-|---------------|


 2/2
     PM-----------------------|
|---------------------------------|
|---------------------------------|
|-9-------------------------------|
|-5-------------------------------|
|-7-------------------------------|
|----6-6-6-6-7-7-7-7-10-10-10-10--|


     PM-----------------------|
|--------------------------------|
|--------------------------------|
|-9------------------------------|
|-5------------------------------|
|-7------------------------------|
|----6-6-6-6-7-7-7-7-10-10-10-10-|


     PM-----------------------|         PM----|
|--------------------------------|---------------|
|--------------------------------|---------------|
|-9------------------------------|-9-------------|
|-5------------------------------|-5---/9--7--7--|
|-7------------------------------|-7--/10--9--5--|
|----6-6-6-6-7-7-7-7-10-10-10-10-|---------------|


     PM-----------------------|       PM-----------------------|
|--------------------------------|--------------------------------|
|--------------------------------|--------------------------------|
|-9------------------------------|-9------------------------------|
|-5------------------------------|-5------------------------------|
|-7------------------------------|-7------------------------------|
|----6-6-6-6-7-7-7-7-10-10-10-10-|----6-6-6-6-7-7-7-7-10-10-10-10-|


                                  5/4
     PM-----------------------|         PM----|
|--------------------------------|-------------------*|
|--------------------------------|-------------------*|
|-9------------------------------|-9-------------9---*|
|-5------------------------------|-5---/9--7--7--5---*|
|-7------------------------------|-7--/10--9--5--7---*|
|----6-6-6-6-7-7-7-7-10-10-10-10-|-------------------*|

End.

  Visit MetalTabs.com for more metal tablature

bottom separator

Contact Us | Privacy Policy | Disclaimer | Legal Notice
Copyright © 2001-2014 MetalTabs.com. All Rights Reserved.