top separator

Home

Forum

What's New

Submit a Tab

FAQ

Links

Contact Us

Link to Us

MetalTabs.com logo

Bands

0-9

A

B

C

D

E

F

G

H

I

J

K

L

M

N

O

P

Q

R

S

T

U

V

W

X

Y

Z

Search

What

Where
 

Avulsed - "Nice Rotting Eyes" Guitar Tab

Plain Text Version
More Avulsed Tabs

Hits: 2018
Updated: 2006-03-18 22:00:34

 

By:

Robbie Filth

sendpm.gif

email.gif

Important note
This tab is available online because we obtained explicit permission from Avulsed or their label.


#----------------------------------PLEASE NOTE---------------------------------#
#This file is the author's own work and represents their interpretation of the #
#song. You may only use this file for private study, scholarship, or research. #
#Unless specified otherwise, this is NOT an official tab from the band members.#
#------------------------------------------------------------------------------#

  Visit MetalTabs.com for more metal tablature
  
Band: Avulsed
Album: Stabwound Orgasm
Song: Nice Rotting Eyes
Record Label: WWIII
Tuning: C# F# B E G# C#

--------------------------------------------------
--------------------------------------------------
--------------------------------------------------
---------------------------------4-7-4-7---6-7-6--
---4---4---4-5-4---4---4---4-5-4---------7--------
-2---2---2-------2---2---2------------------------X4
pm   .   .       .   .   .
trem..............................................

-------------------------------------------------------------------
-------------------------------------------------------------------
-------------------------------------------------------------------
---------4-2-0---------------------------4-2-0---------------------
---4-5-4-------4---4-5-4-2-0-2-4---4-5-4-------4-22222-77777-6666--
-2---------------2---------------2---------------00000-55555-4444--X2
 trem........................................... pm...

--------------------------------------------------
--------------------------------------------------
--------------------------------------------------
---------------------------------4-7-4-7---6-7-6--
---4---4---4-5-4---4---4---4-5-4---------7--------
-2---2---2-------2---2---2------------------------X4
pm   .   .       .   .   .
trem..............................................

-------------------------------------------------------------------
-------------------------------------------------------------------
-------------------------------------------------------------------
---------4-2-0---------------------------4-2-0---------------------
---4-5-4-------4---4-5-4-2-0-2-4---4-5-4-------4-22222-77777-6666--
-2---------------2---------------2---------------00000-55555-4444--X2
 trem........................................... pm... ..... ....

------------------------------------------------------------
------------------------------------------------------------
------------------------------------------------------------
-------------------------------4-7-777-7-7-2-6-666-----4-2--
-4-44444444-7-6-4-44444444-7-6-5-5-555-5-5-4-4-444-----2-0--
-2-22222222-5-4-2-22222222-5-4---------------------0-2------X4
   pm......       ........       . ... . .   . ...

--------------------------------------------------
--------------------------------------------------
--------------------------------------------------
---------------------------------4-7-4-7---6-7-6--
---4---4---4-5-4---4---4---4-5-4---------7--------
-2---2---2-------2---2---2------------------------X2
pm   .   .       .   .   .
trem..............................................


-------------------------------------------------------------------
-------------------------------------------------------------------
-------------------------------------------------------------------
---------4-2-0---------------------------4-2-0---------------------
---4-5-4-------4---4-5-4-2-0-2-4---4-5-4-------4-22222-77777-6666--
-2---------------2---------------2---------------00000-55555-4444--X2
 trem........................................... pm...

------------------------------------------------------------
------------------------------------------------------------
------------------------------------------------------------
-------------------------------4-7-777-7-7-2-6-666-----4-2--
-4-44444444-7-6-4-44444444-7-6-5-5-555-5-5-4-4-444-----2-0--
-2-22222222-5-4-2-22222222-5-4---------------------0-2------X4
   pm......       ........       . ... . .   . ...

--------------------------------------------------------
--------------------------------------------------------
--------------------------------------------------------
--------------------------------------------------------
---4-0-2-4-5---4-0-2-4-5-4-2---4-0-2-4-5-----5---4-2-0--
-2-----------2---------------2-----------5-5---5--------

------------------------------------------------------------
------------------------------------------------------------
------------------------------------------------------------
-----------------------------------------4-2h4p2------------
---4-0-2-4-5---4-0-2-4-5-4-2---4-0-2-4-5---------4-2-4-5----
-2-----------2---------------2---------------------------2--

--------------------------------------------------------
--------------------------------------------------------
--------------------------------------------------------
--------------------------------------------------------
---4-0-2-4-5---4-0-2-4-5-4-2---4-0-2-4-5-----5---4-2-0--
-2-----------2---------------2-----------5-5---5--------

------------------------------------------------------------
------------------------------------------------------------
------------------------------------------------------------
-----------------------------------------4-2h4p2------------
---4-0-2-4-5---4-0-2-4-5-4-2---4-0-2-4-5---------4-2-4-5----
-2-----------2---------------2---------------------------2--

---------------------------------------
---------------------------------------
--6-6-6-6-6-7-6-4-6-6-6----------------
--4-4-4-4-4-4-4-4-4-4-4----------------
--4-4-4-4-4-4-4-4-4-4-4-4-6-7-6-4-3-4--
------------------------2-4-5-4-2-1-2--X4

------------------------------
------------------------------
-6-6-6-7-6-4------------------
-4-4-4-4-4-4------------------
-4-4-4-4-4-4-7-7-7-7-6-6-6-4--
-------------5-5-5-5-4-4-4-2--X8

------------------------------------------------------------
------------------------------------------------------------
------------------------------------------------------------
-------------------------------4-7-777-7-7-2-6-666-----4-2--
-4-44444444-7-6-4-44444444-7-6-5-5-555-5-5-4-4-444-----2-0--
-2-22222222-5-4-2-22222222-5-4---------------------0-2------X7
   pm......       ........       . ... . .   . ...
This fades to an end after 4 times.

THE END

any corrections mail em to septic_flesh241@hotmail.com

  Visit MetalTabs.com for more metal tablature

bottom separator

Contact Us | Privacy Policy | Disclaimer | Legal Notice
Copyright © 2001-2014 MetalTabs.com. All Rights Reserved.