top separator

Home

Forum

What's New

Submit a Tab

FAQ

Links

Contact Us

Link to Us

MuSpy.com

MetalTabs.com logo

Bands

0-9

A

B

C

D

E

F

G

H

I

J

K

L

M

N

O

P

Q

R

S

T

U

V

W

X

Y

Z

Search

What

Where
 

Toxic Holocaust - "Intro" Guitar Tab

Plain Text Version
More Toxic Holocaust Tabs

Hits: 3582
Rated: 5.00 out of 5 (2 votes)
Updated: 2006-03-18 21:58:27

 

By:

sendpm.gif

email.gif

Important note
This tab is available online because we obtained explicit permission from Toxic Holocaust or their label.


#----------------------------------PLEASE NOTE---------------------------------#
#This file is the author's own work and represents their interpretation of the #
#song. You may only use this file for private study, scholarship, or research. #
#Unless specified otherwise, this is NOT an official tab from the band members.#
#------------------------------------------------------------------------------#

  Visit MetalTabs.com for more metal tablature
  
Band:  TOXIC HOLOCAUST
Album: HELL ON EARTH
Song:  INTRO

Copyright (c)  NUCLEAR WAR NOW! 2005
Version 1.0 - 3/12/06

Transcribed By: RAY CUNNINGHAM
Email: evilneverdies716@gmail.com


.  - palm mute           /  - slide up to
\  - slide down to       ~  - vibrato
h  - hammer on           b  - Bend
p  - pull off            Suffixes for bend
t  - tap                 f  - full bend    h - half bend
ph - pinched harmonic    q  - quarter bend t - tap bend
*  - see comment         ^  - Hold bend    r release bend
x  - Stuccatto           ~  - vibrato bend
,  - slight palm mute    () - ghost note, sustained note
"  - tremolo note        <> - Trill

Tuning E A D G B E


*This is one of my first tabs
*I did my best on it and I'm sure it's at least 95% correct
*I probably didn't put the right amount of times to hit each note
 but you get the idea

|------------------|
|------------------|
|0-3-5-3-5-3-0-3-2-|
|0-3-5-3-5-3-0-3-2-|
|----------------0-|
|------------------|


|-----------------------------------------------------|-----|
|-----------------------------------------------------|-----|
|2-------0-3-5-2-------0-3-5-2-------0-3-5-2----------|-----|
|2-------0-3-5-2-------0-3-5-2-------0-3-5-2----------|-----|
|0-00000-------0-00000-------0-00000-------0-000000000|1010-|
|-----------------------------------------------------|-----|
   .....         .....         .....         ......... /\
		not sure about this part               ||
                those are 1's and 0's not 10's---------||


|----------------------|
|----------------------|
|----------------------|   continued here
|000000000003332222222-|  -------------||
|----------------------|               ||
|----------------------|               ||
                                       \/

Ending 1,3               Ending 2             Ending 4
------------------------|--------------------|-----------------|
-------------4----4-----|--------------------|-----------------|
3333222222222-2222-2222-|--------------------|-----------------|
------------------------|-----------33332222-|-----------------|
------------------------|11111111111---------|1111111100000000-|
------------------------|--------------------|-----------------|


Substitute for Ending 4 at end of song
|---|
|---|
|-3-|
|-3-|
|-1-|
|---|

  Visit MetalTabs.com for more metal tablature

bottom separator

Contact Us | Privacy Policy | Disclaimer | Legal Notice
Copyright © 2001-2014 MetalTabs.com. All Rights Reserved.