top separator

Home

Forum

What's New

Submit a Tab

FAQ

Links

Contact Us

Link to Us

MetalTabs.com logo

Bands

0-9

A

B

C

D

E

F

G

H

I

J

K

L

M

N

O

P

Q

R

S

T

U

V

W

X

Y

Z

Search

What

Where
 

Immortal - "Withstand the fall of time" Guitar Tab

Plain Text Version
More Immortal Tabs

Hits: 2853
Rated: 3.33 out of 5 (3 votes)
Updated: 2006-03-18 21:57:52

 

By:

sendpm.gif

email.gif

Important note
We did our best to reach Immortal and ask for their permission to publish this tab. Unfortunately they did not respond to our requests or we could not find a way to contact them. This tab is available online until Immortal tells us to take it down.


#----------------------------------PLEASE NOTE---------------------------------#
#This file is the author's own work and represents their interpretation of the #
#song. You may only use this file for private study, scholarship, or research. #
#Unless specified otherwise, this is NOT an official tab from the band members.#
#------------------------------------------------------------------------------#

  Visit MetalTabs.com for more metal tablature
  
Band:  (IMMORTAL)
Album: (AT THE HEART OF WINTER)
Song:  (WITHSTAND THE FALL OF TIME)

Transcribed By: (CRUZ)
Email:          (unholyjihadterrorist@yahoo.com)


.  - palm mute           /  - slide up to
\  - slide down to       ~  - vibrato
h  - hammer on           b  - Bend
p  - pull off            Suffixes for bend
t  - tap                 f  - full bend    h - half bend
ph - pinched harmonic    q  - quarter bend t - tap bend
*  - see comment         ^  - Hold bend    r release bend
x  - Stuccatto           ~  - vibrato bend
,  - slight palm mute    () - ghost note, sustained note
"  - tremolo note        <> - Trill

Tuning E A D G B E
|-------------------------------------------------------------------|
|-------------------------------------------------------------------|
|-00-2222-5555-44454-22-00-22-5555-447744---------------------------|
|-----------------------------------------5555----------------------|
|-------------------------------------------------------------------|

|-------------------------------------------------------------------|
|-------------------------------------------------------------------|
|-------------------------------------------------------------------|
|-2-2-2-33333333-2-2-2-3300330030-2-2-2-333333-2-2-2-2222200000-----|
|-2-2-2----------2-2-2------------2-2-2--------2-2-2----------------|
|-0-0-0----------0-0-0------------0-0-0--------0-0-0----------------|

|-------------------------------------------------------------------|
|-------------------------------------------------------------------|
|-------------------------------------------------------------------|
|-00-2222-5555--44454-22-00-2222-5555-447744------------------------|
|--------------------------------------------5555-------------------|
|-------------------------------------------------------------------|

|-------------------------------------------------------------------|REPEAT 2X
|.----------------------------------------------------------------.-|
|-------------------------------------------------------------------|
|-2-2-2-333333-2-2-2-3300330030-2-2-2-333333-2-2-2-22220000---------|
|.2-2-2--------2-2-2------------2-2-2--------2-2-2----------2------.|
|-0-0-0--------0-0-0------------0-0-0--------0-0-0----------0-------|

|-------------------------------------------------------------------|
|-------------------------------------------------------------------|
|-------------------------------------------------------------------|
|--2222-4444-5555-7777--2222-4444-559955----------------------------|
|--2222-5555-3333-5555--2222-5555-337733----------------------------|
|-------------------------------------------------------------------|

|-------------------------------------------------------------------|REPEAT 4X
|.-----------------------------------------------------------------.|
|-------------------------------------------------------------------|
|---555-333-666----333-555------------------------------------------|
|.2-777-555-888-22-555-777-444------------------------------------.-|
|-0-------------00---------666--------------------------------------|

|-------------------------------------------------------------------|
|-------------------------------------------------------------------|
|-------------------------------------------------------------------|
|--2222-4444-5555-7777--2222-4444-5555-779977-----------------------|
|--2222-5555-3333-5555--2222-5555-3333-557755-----------------------|
|-------------------------------------------------------------------|

|--------------------------------------------|
|.------------------------------------------.|
|--------------------------------------------|
|-9--------7---10---9--------7---10-10-10-9--|
|.7--------5---8----7--------5---8--8--8--7-.|
|--00000000-000--000-00000000-000------------|

|-----------------------------------|
|-----------------------------------|
|-----------------------------------|
|-99-9-10-99---------99-9-10-99-7777|
|-77-7-8--77-754-540-77-7-8--77-5555|
|-----------------------------------|

|-------------------------------------------------------------------|REPEAT 6X
|-------------------------------------------------------------------|
|-------------------------------------------------------------------|
|-9999991097---99999107--10101010101010112109-1010101010129---------|
|-7777777777---77777777--12121212121212121212-12121212121212--------|
|-------------------------------------------------------------------|

|-------------------------------------------------------------------|REPEAT 2X
|-------------------------------------------------------------------|
|-------------------------------------------------------------------|
|--55-5-24--55-5-4---77-7-75-77-7875754-----------------------------|
|-------------------------------------------------------------------|
|-0--0-0---0--0-0---0--0-0--0--0------------------------------------|

please rate this tab
because it took long and i want to know
how my work has effected this world

  Visit MetalTabs.com for more metal tablature

bottom separator

Contact Us | Privacy Policy | Disclaimer | Legal Notice
Copyright © 2001-2014 MetalTabs.com. All Rights Reserved.