top separator

Home

Forum

FAQ

Contact Us

Link to Us

MetalTabs.com logo

Bands

0-9

A

B

C

D

E

F

G

H

I

J

K

L

M

N

O

P

Q

R

S

T

U

V

W

X

Y

Z

Exhumed - "Death Walks Behind You" Guitar Tab

Plain Text Version
More Exhumed Tabs

Hits: 2976
Rated: 4.00 out of 5 (2 votes)
Updated: 2006-03-18 21:56:53

By:

AchromaticChronicles


#----------------------------------PLEASE NOTE---------------------------------#
#This file is the author's own work and represents their interpretation of the #
#song. You may only use this file for private study, scholarship, or research. #
#Unless specified otherwise, this is NOT an official tab from the band members.#
#------------------------------------------------------------------------------#

  Visit MetalTabs.com for more metal tablature
  
Band:  (EXHUMED)
Album: (ANATOMY IS DESTINY)
Song:  (DEATH WALKS BEHIND YOU)

Copyright (c)  (RELAPSE RECORDS 2003)
Version 1.0 -  (MARCH 11, 2006)

Transcribed By: (AchromaticChronicles)
Email:          (AnimasPhantasm@hotmail.com)


.  - palm mute           /  - slide up to
\  - slide down to       ~  - vibrato
h  - hammer on           b  - Bend
p  - pull off            Suffixes for bend
t  - tap                 f  - full bend    h - half bend
ph - pinched harmonic    q  - quarter bend t - tap bend
*  - see comment         ^  - Hold bend    r release bend
x  - Stuccatto           ~  - vibrato bend
,  - slight palm mute    () - ghost note, sustained note
"  - tremolo note        <> - Trill

NOTE: Iím not 100% on everything here, but this is a pretty good start I
think considering this is my first tab. The songís fairly fast/muddy in the
beginning so I may be a little off in the first riff and in the palm muted
noted in Riff 2 and 3. Riffís 4,5, and 6 are muddy as well but Iím sure
they are right. Please correct me on anything you see that may be out
of place, and if someone figures out the soloís notify me.
Thanks for any feedback.


Tuning:  B E A D F* B


|----------------------------------|  Riff 1 x2
|----------------------------------|
|----------------------------------|
|----------5/6\5-----------3/4\3---|
|---6---2--3/4\3----6---2--1/2\1---|
|-3-4-0-0---------3-4-0-0----------|
  .   .            .   .
|--------------------------------------------------------|    Riff 2 x1
|--------------------------------------------------------|
|--------------------------------------------------------|
|------------5/6\5----------------------3/4\3------------|
|-5---6---2--3/4\3-----------5---6---2--1/2\1------------|
|-3-3-4-0-0---------3-6-4-7--3-3-4-0-0--------3-6-4-7----|
    .   .           . . . .    .   .          . . . .
|-----------------------------------------------|
|-----------------------------------------------|
|-----------------------------------------------|
|------------5/6\5----------------------3/4\3---|
|-5---6---2--3/4\3-----------5---6---2--1/2\1---|
|-3-3-4-0-0---------3-6-4-7--3-3-4-0-0----------|
    .   .           . . . .    .   .
|------------------------------|        Riff 3 x2
|------------------------------|
|------------------------------|
|-------------3-------------3--|
|---------5\--1---------5\--1--|
|-3-6-4-7-3\----3-6-4-7-3\-----|
  . . . .
Riff 4   1,2,3,4      on 5th time do this
|---------------|--------------|
|---------------|--------------|
|---------------|--------------|
|-3-----6\5-----|-3-----6\5----|
|-1-4/5-4\3-4\3-|-1-4/5-4\3-3--|
|---2/3-----2\1-|---2/3-----1--|

|----------------------------------|    Riff 5 x6
|----------------------------------|
|----------------------------------|
|--------6\5--------------6\5-7/9--|
|-2--4/5-4\3-4\3--2--4/5--4\3-5/7--|
|-0--2/3-----2\1--0--2/3-----------|

|------------------|  Riff 6 x8
|------------------|
|------------------|
|----7\6-----------|
|-2--5\4-7\6-5\4---|
|-0------5\4-3\2---|

|-----------------------------------------------------|    Riff 7 (Chorus)
|-----------------------------------------------------|
|-----------------------------------------------------|
|-3------------3------------6------------7------------|
|-1---------5\-1---------5\-4---------5\-5---------5\-|
|---3-6-4-7-3\---3-6-4-7-3\---3-6-4-7-3\---3-6-4-7-3\-|
    . . . .      . . . .      . . . .      . . . .                    x2
|-----------------------------------------------------|
|-----------------------------------------------------|
|-----------------------------------------------------|
|-3------------3--------------------------------------|
|-1---------5\-1---------5\-6---------5\-5---------5\-|
|---3-6-4-7-3\---3-6-4-7-3\-4-3-6-4-7-3\-3-3-6-4-7-3\-|
    . . . .      . . . .      . . . .      . . . .

next Riff 5 x6
     Riff 6 x6
     Riff 7 x2
|-------------------------------------------------------------| Riff 8 A
|-------------------------------------------------------------|
|-------------------------------------------------------------|
|------7\6-----5\4----------5/6------7\6-----5\4-----6\5------|
|-(2)--5\4-6\5-3\2-5\4--5\4-3/4-(2)--5\4-6\5-3\2-5\4-4\3-4\3--|
|-(0)------4\3-----3\2--3\2-----(0)------4\3-----3\2-----2\1--|
 Riff 8 B
|--------------------------------------------------------------------------|
|--------------------------------------------------------------------------|
|--------------------------------------------------------------------------|
|------------7\6-----5\4----------5/6-------------7\6-----5\4-----6\5------|
|(2)-----(2)-5\4-6\5-3\2-5\4--5\4-3/4-(2)-----(2)-5\4-6\5-3\2-5\4-4\3-4\3--|
|(0)-0-0-(0)-----4\3-----3\2--3\2-----(0)-0-0-(0)-----4\3-----3\2-----2\1--|
     . .                                  . .

 Riff 9    (progressively slow down the very last time)
|---------------------------------------------------|
|---------------------------------------------------|
|---------------------------------------------------|
|--------------------------7\6-----5\4----------5/6-|
|2-------------------------5\4-6\5-3\2-5\4--5\4-3/4-|
|0-0-0-0-0-0-0-0-0-0-0-0-0-----4\3-----3\2--3\2-----|
   . . . . . . . . . . . .                                     x4
|---------------------------------------------------|
|---------------------------------------------------|
|---------------------------------------------------|
|--------------------------7\6-----5\4-----6\5------|
|2-------------------------5\4-6\5-3\2-5\4-4\3-4\3--|
|0-0-0-0-0-0-0-0-0-0-0-0-0-----4\3-----3\2-----2\1--|
   . . . . . . . . . . . .
                                                         Riff 10 x2
|------|-------------------------------------------------------------|
|------|-------------------------------------------------------------|
|------|-------------------------------------------------------------|
|------|-------------------------------------------------------------|
|-\\\\-|-2-----5/6\5--5\4-----4\3-----2------3---5/6\5-4-----4\3-----|
|-\\\\-|-0-0-0-3/4\3--3\2-0-0-2\1-0-0-0--0-0-1-0-3/4\3-2-0-0-2\1-0-0-|
           . .            . .     . .    . .   .         . .     . .

       Riff 11 x4
|---------------------------------------|
|---------------------------------------|
|---------------------------------------|
|---------------------------------------|
|-6\5-----5---------4-3-6-5--5/6\5------|
|-4\3-0-0-3-0-0-3-4----------3/4\3-0-0--|
      . .   . . . . . . . .        . .

next Riff 10 x2
     Riff 11 x4
     Riff 5 x6
     Riff 6 x6
     Riff 7 x2
     Riff 1 x2

End with this

|-----------------------|
|---2\\-----------------|
|-0-0\\-----------------|

  Visit MetalTabs.com for more metal tablature

bottom separator

Contact Us | Privacy Policy | Disclaimer
Copyright © 2001-2014 MetalTabs.com. All Rights Reserved.