top separator

Home

Forum

What's New

Submit a Tab

FAQ

Links

Contact Us

Link to Us

MetalTabs.com logo

Bands

0-9

A

B

C

D

E

F

G

H

I

J

K

L

M

N

O

P

Q

R

S

T

U

V

W

X

Y

Z

Search

What

Where
 

Coroner - "Suicide Command" Guitar Tab

Plain Text Version
More Coroner Tabs

Hits: 3360
Rated: 4.00 out of 5 (4 votes)
Updated: 2006-03-18 21:44:22

 

By:

Chris Rezendes

sendpm.gif

email.gif

Important note
We did our best to reach Coroner and ask for their permission to publish this tab. Unfortunately they did not respond to our requests or we could not find a way to contact them. This tab is available online until Coroner tells us to take it down.


#----------------------------------PLEASE NOTE---------------------------------#
#This file is the author's own work and represents their interpretation of the #
#song. You may only use this file for private study, scholarship, or research. #
#Unless specified otherwise, this is NOT an official tab from the band members.#
#------------------------------------------------------------------------------#

  Visit MetalTabs.com for more metal tablature
  
================================================================================
Song: Suicide Command
Artist: Coroner
Album: R.I.P. (1987, Noise Records)

Tabbed by Chris Rezendes (dudemcrude@yahoo.com)
Date started tab: 2/06/06
Date finished tab: 2/10/06

Tuning: E
Copy: First

Notation Key
~  : vibrato
^  : bend
.  : palm mute
r  : release
t  : trill
p  : pull-off
h  : hammer-on
x  : ghost note
/  : slide up
\  : slide down
>< : pinch harmonics

Comments: If you notice any mistakes, I'd appreciate it if you'd point it out to
me.
================================================================================

Riff 1 x4
e|----------------------|------------------|
B|----------------------|------------------|
G|---------6---0-7p6p0--|---------6---0----|
D|-------7---7----------|-------7---7---8--|
A|--0000----------------|--0000---------6--|
E|----------------------|------------------|

e|----------------------|------------------|
B|----------------------|------------------|
G|---------6---0-7p6p0--|---------6---0----|
D|-------7---7----------|-------7---7------|
A|--0000----------------|--0000---------8--|
E|----------------------|---------------6--|

            TIME- 0:10

Riff 2 x2
e|----------------------------------------|
B|----------------------------------------|
G|----------------------------------------|
D|--7/9------10\9------7/9------10\9--12--|
A|--5/7-------8\7------5/7-------8\7--10--|
E|------0000------0000-----0000-----------|

e|-------------------------------------|
B|-------------------------------------|
G|-------------------------------------|
D|--7/9------10\9------7/9-------------|
A|--5/7-------8\7------5/7-------8--7--|
E|------0000------0000-----0000--6--5--|

            TIME- 0:19

Riff 1 x4
e|----------------------|------------------|
B|----------------------|------------------|
G|---------6---0-7p6p0--|---------6---0----|
D|-------7---7----------|-------7---7---8--|
A|--0000----------------|--0000---------6--|
E|----------------------|------------------|

e|----------------------|------------------|
B|----------------------|------------------|
G|---------6---0-7p6p0--|---------6---0----|
D|-------7---7----------|-------7---7------|
A|--0000----------------|--0000---------8--|
E|----------------------|---------------6--|

            TIME- 0:28

Riff 2 x2
e|----------------------------------------|
B|----------------------------------------|
G|----------------------------------------|
D|--7/9------10\9------7/9------10\9--12--|
A|--5/7-------8\7------5/7-------8\7--10--|
E|------0000------0000-----0000-----------|

e|-------------------------------------|
B|-------------------------------------|
G|-------------------------------------|
D|--7/9------10\9------7/9-------------|
A|--5/7-------8\7------5/7-------8--7--|
E|------0000------0000-----0000--6--5--|

            TIME- 0:37

Riff 3 x2
e|-------------------------------|-------------------------------|
B|-------------------------------|-------------------------------|
G|-------------------------------|-------------------------------|
D|--7-------7--5--5---5---5---5--|--7-------7--7--8---8---8---8--|
A|--5-0-356-5--3--3-333-333-333--|--5-0-356-5--5--6-666-666-666--|
E|-------------------------------|-------------------------------|

            TIME- 0:46

Fill 1
e|-----|---------|
B|-----|---------|
G|-----|---------|
D|--7--|--7-7-7--|
A|--5--|--5-5-5--|
E|-----|---------|

Riff 4 x2
e|-------------------|-----------------|-------------------|-------------------|
B|-------------------|-----------------|-------------------|-------------------|
G|----------------6--|-----------------|----------------6--|-------------------|
D|------8---------6--|------8-------8--|------8---------6--|------8----10-9-8--|
A|--555-6-5-555-6----|--555-6-5-555-6--|--555-6-5-555-6----|--555-6-5---8-7-6--|
E|-------------------|-----------------|-------------------|-------------------|

            TIME- 0:56

Riff 5 x2
e|------------------------------------------|----------------------------------|
B|------------------------------------------|----------------------------------|
G|-------5------6------5------5-------------|-------5------6------------3-6-6--|
D|-------5------6------5------5-------------|-------5------6------6-5-5-3-6-6--|
A|--3333---3333---3333---3333---3333-6p5p3--|--3333---3333---3333-6-5-5-1-4-4--|
E|------------------------------------------|---------------------4-3-3--------|

            TIME- 1:04

Riff 4 x2
e|-------------------|-----------------|-------------------|-------------------|
B|-------------------|-----------------|-------------------|-------------------|
G|----------------6--|-----------------|----------------6--|-------------------|
D|------8---------6--|------8-------8--|------8---------6--|------8----10-9-8--|
A|--555-6-5-555-6----|--555-6-5-555-6--|--555-6-5-555-6----|--555-6-5---8-7-6--|
E|-------------------|-----------------|-------------------|-------------------|

            TIME- 1:13

Riff 5 x2
e|------------------------------------------|----------------------------------|
B|------------------------------------------|----------------------------------|
G|-------5------6------5------5-------------|-------5------6------------3-6-6--|
D|-------5------6------5------5-------------|-------5------6------6-5-5-3-6-6--|
A|--3333---3333---3333---3333---3333-6p5p3--|--3333---3333---3333-6-5-5-1-4-4--|
E|------------------------------------------|---------------------4-3-3--------|

            TIME- 1:22

Riff 6 x2
e|------------------------------|--------------------------------------|
B|------------------------------|--------------------------------------|
G|--9\------9\------9\------9\--|--------------------------------------|
D|--7\------7\------7\------7\--|--------------------------------------|
A|-----0000----0000----0000-----|--111111111111111111-013-531-357-875--|
E|------------------------------|--------------------------------------|

e|------------------------------|-------------------------------------|
B|------------------------------|-------------------------------------|
G|--9\------9\------9\------9\--|-------------------------------------|
D|--7\------7\------7\------7\--|-------------------------------------|
A|-----0000----0000----0000-----|--111111111111111111-013-531-753-8~--|
E|------------------------------|-------------------------------------|

            TIME- 1:40

Riff 7 x4
e|------------------------------------------|
B|------------------------------------------|
G|------------------------------------------|
D|------------------------------------------|
A|--0h222222--0h222222--0h222222--0h222222--|
E|------------------------------------------|

            TIME- 1:49

Riff 8A x2
e|------------------------------------------------------|
B|------------------------------------------------------|
G|------------------------------------------------------|
D|--9\--------------------8-8-9\------------------------|
A|--7\-----2-----2-----2--6-6-7\-----2-----2-----2------|
E|-----0-0-0-0-0-0-0-0-0---------0-0-0-0-0-0-0-0-0-0-0--|

e|-------------------------------------|
B|-------------------------------------|
G|-------------------------------------|
D|-------------------------------------|
A|--2222222222222222-3333333333333333--|
E|-------------------------------------|

            TIME- 2:02

Riff 8B x1
e|-----------------|-----------------|-------------------------------------|
B|-----------------|-----------------|-------------------------------------|
G|-----------------|-----------------|-------------------------------------|
D|--9--9-9--9-9-9--|--9--9-9--9-9-9--|-------------------------------------|
A|--7--7-7--7-7-7--|--7--7-7--7-7-7--|--2222222222222222-3333333333333333--|
E|-----------------|-----------------|-------------------------------------|

e|-----------------|-------------------|
B|-----------------|-------------------|
G|-----------------|-------------------|
D|--9--9-9--9-9-9--|--9--9-9--9-7-8-9--|
A|--7--7-7--7-7-7--|--7--7-7--7-5-6-7--|
E|-----------------|-------------------|

            TIME- 2:09

Fill 2
e|---------------------------------------------------|
B|---------------------------------------------------|
G|---------------------------------------------------|
D|--2h4444p2p0--2h4444p2p0--2h4444p2p0--2-4-6-7-6----|
A|------------------------------------------------7--|
E|---------------------------------------------------|

Riff 9 x1
e|-----------------------------------------------------------|
B|-----------------------------------------------------------|
G|-----------------------------------------------------------|
D|--4-4444-4-4444-4-4444-4-4444------------------------------|
A|------------------------------4-4444-4-4444-4-4444-4-4444--|
E|-----------------------------------------------------------|

e|-----------------------------------------------------------|
B|-----------------------------------------------------------|
G|-----------------------------------------------------------|
D|-----------------------------------------------------------|
A|--7-7777-7-7777-7-7777-7-7777------------------------------|
E|------------------------------7-7777-7-7777-7-7777-7-7777--|

e|-----------------------------------------------------------|
B|-----------------------------------------------------------|
G|-----------------------------------------------------------|
D|-----------------------------------------------------------|
A|--6-6666-6-6666-6-6666-6-6666------------------------------|
E|------------------------------6-6666-6-6666-6-6666-6-6666--|

            TIME- 2:25

Fill 3
e|---------------------------------------------------------|
B|---------------------------------------------------------|
G|---------------------------------------------------------|
D|----------------6h7p6--6h7p6--8h9p8--8h9p8--6h7p6-/-11\--|
A|--8h9p8--8h9p8-------------------------------------------|
E|---------------------------------------------------------|

Riff 6 x2
e|------------------------------|--------------------------------------|
B|------------------------------|--------------------------------------|
G|--9\------9\------9\------9\--|--------------------------------------|
D|--7\------7\------7\------7\--|--------------------------------------|
A|-----0000----0000----0000-----|--111111111111111111-013-531-357-875--|
E|------------------------------|--------------------------------------|

e|------------------------------|-------------------------------------|
B|------------------------------|-------------------------------------|
G|--9\------9\------9\------9\--|-------------------------------------|
D|--7\------7\------7\------7\--|-------------------------------------|
A|-----0000----0000----0000-----|--111111111111111111-013-531-753-8~--|
E|------------------------------|-------------------------------------|

            TIME- 2:46

Riff 7 x4
e|------------------------------------------|
B|------------------------------------------|
G|------------------------------------------|
D|------------------------------------------|
A|--0h222222--0h222222--0h222222--0h222222--|
E|------------------------------------------|

            TIME- 2:55

Riff 3 x2
e|-------------------------------|-------------------------------|
B|-------------------------------|-------------------------------|
G|-------------------------------|-------------------------------|
D|--7-------7--5--5---5---5---5--|--7-------7--7--8---8---8---8--|
A|--5-0-356-5--3--3-333-333-333--|--5-0-356-5--5--6-666-666-666--|
E|-------------------------------|-------------------------------|

            TIME- 3:03

Fill 1
e|-----|---------|
B|-----|---------|
G|-----|---------|
D|--7--|--7-7-7--|
A|--5--|--5-5-5--|
E|-----|---------|

Riff 4 x2
e|-------------------|-----------------|-------------------|-------------------|
B|-------------------|-----------------|-------------------|-------------------|
G|----------------6--|-----------------|----------------6--|-------------------|
D|------8---------6--|------8-------8--|------8---------6--|------8----10-9-8--|
A|--555-6-5-555-6----|--555-6-5-555-6--|--555-6-5-555-6----|--555-6-5---8-7-6--|
E|-------------------|-----------------|-------------------|-------------------|

            TIME- 3:13

Riff 5 x2
e|------------------------------------------|----------------------------------|
B|------------------------------------------|----------------------------------|
G|-------5------6------5------5-------------|-------5------6------------3-6-6--|
D|-------5------6------5------5-------------|-------5------6------6-5-5-3-6-6--|
A|--3333---3333---3333---3333---3333-6p5p3--|--3333---3333---3333-6-5-5-1-4-4--|
E|------------------------------------------|---------------------4-3-3--------|

            TIME- 3:22

Riff 4 x2
e|-------------------|-----------------|-------------------|-------------------|
B|-------------------|-----------------|-------------------|-------------------|
G|----------------6--|-----------------|----------------6--|-------------------|
D|------8---------6--|------8-------8--|------8---------6--|------8----10-9-8--|
A|--555-6-5-555-6----|--555-6-5-555-6--|--555-6-5-555-6----|--555-6-5---8-7-6--|
E|-------------------|-----------------|-------------------|-------------------|

            TIME- 3:31

Riff 5 x2
e|------------------------------------------|----------------------------------|
B|------------------------------------------|----------------------------------|
G|-------5------6------5------5-------------|-------5------6------------3-6-6--|
D|-------5------6------5------5-------------|-------5------6------6-5-5-3-6-6--|
A|--3333---3333---3333---3333---3333-6p5p3--|--3333---3333---3333-6-5-5-1-4-4--|
E|------------------------------------------|---------------------4-3-3--------|

            TIME- 3:39

Riff 6A x1
e|------------------------------|--------------------------------------|
B|------------------------------|--------------------------------------|
G|--9\------9\------9\------9\--|--------------------------------------|
D|--7\------7\------7\------7\--|--------------------------------------|
A|-----0000----0000----0000-----|--111111111111111111-013-531-357-875--|
E|------------------------------|--------------------------------------|

e|------------------------------|-------------------------------------|
B|------------------------------|-------------------------------------|
G|--9\------9\------9\------9\--|-------------------------------------|
D|--7\------7\------7\------7\--|-------------------------------------|
A|-----0000----0000----0000-----|--111111111111111111-013-531-753-8~--|
E|------------------------------|-------------------------------------|

Riff 6B x1
e|------------------------------|--------------------------------------|
B|------------------------------|--------------------------------------|
G|--9\------9\------9\------9\--|--------------------------------------|
D|--7\------7\------7\------7\--|--------------------------------------|
A|-----0000----0000----0000-----|--111111111111111111-013-531-357-875--|
E|------------------------------|--------------------------------------|

e|------------------------------|----------------------------------|
B|------------------------------|----------------------------------|
G|--9\------9\------9\------9\--|----------------------------------|
D|--7\------7\------7\------7\--|----------------------------------|
A|-----0000----0000----0000-----|--111111111111111111-013-531-753--|
E|------------------------------|----------------------------------|

            TIME- 3:58

False coda...
e|---------------|
B|---------------|
G|---------------|
D|--10--9--------|
A|---8--7--6--7--|
E|---------4--5--|

            TIME- 4:00

Chord ringing, effects, cymbals, whatnot...

            TIME- 4:11

Then kill the song with-
e|------------------------------------------------------|
B|------------------------------------------------------|
G|------------------------------------------------------|
D|--------------------------------------------------7\--|
A|--8-7-5-------8-7-5-------8-7-5-------8-7-5-------7\--|
E|--------8-7-5-------8-7-5-------8-7-5-------8-7-5-5\--|

  Visit MetalTabs.com for more metal tablature

bottom separator

Contact Us | Privacy Policy | Disclaimer | Legal Notice
Copyright © 2001-2014 MetalTabs.com. All Rights Reserved.