top separator

Home

Forum

What's New

Submit a Tab

FAQ

Links

Contact Us

Link to Us

MuSpy.com

MetalTabs.com logo

Bands

0-9

A

B

C

D

E

F

G

H

I

J

K

L

M

N

O

P

Q

R

S

T

U

V

W

X

Y

Z

Search

What

Where
 

Pestilence - "Parricide" Guitar Tab

Plain Text Version
More Pestilence Tabs

Hits: 4478
Updated: 2006-03-18 21:43:28

 

By:

Chris Rezendes

sendpm.gif

email.gif

Important note
This tab is available online because we obtained explicit permission from Pestilence or their label.


#----------------------------------PLEASE NOTE---------------------------------#
#This file is the author's own work and represents their interpretation of the #
#song. You may only use this file for private study, scholarship, or research. #
#Unless specified otherwise, this is NOT an official tab from the band members.#
#------------------------------------------------------------------------------#

  Visit MetalTabs.com for more metal tablature
  
================================================================================
Song: Parricide
Artist: Pestilence
Album: Malleus Maleficarum (1988, Displeased Records)

Tabbed by Chris Rezendes (dudemcrude@yahoo.com)
Date started tab: 5/29/05
Date finished tab: 2/02/06

Tuning: E (standard)
Copy: First

Notation Key
~  : vibrato
^  : bend
.  : palm mute
r  : release
t  : trill
p  : pull-off
h  : hammer-on
x  : ghost note
/  : slide up
\  : slide down
>< : pinch harmonics

Comments: If you notice any mistakes, I'd appreciate it if you'd point it out to
me.
================================================================================

Riff 1 x8
 |                        Right                        |
e|-------------|-------------|-------------|-----------|
B|-------------|-------------|-------------|-----------|
G|-------------|-------------|-------------|-----------|
D|-------------|-------------|-------------|-----------|
A|--7-5--------|--7----------|--7----------|--7-5-8-5--|
E|------0-0-0--|----8-0-0-0--|----6-0-0-0--|-----------|
 |      . . .         . . .         . . .              |
 |                                                     |
 |                         Left                        |
e|-------------|-------------|-------------|-----------|
B|-------------|-------------|-------------|-----------|
G|-------------|-------------|-------------|-----------|
D|--5-4--------|--5----------|--5----------|--5-4-7-4--|
A|-------------|----7--------|----8--------|-----------|
E|------0-0-0--|------0-0-0--|------0-0-0--|-----------|
        . . .         . . .         . . .

            TIME- 0:26

Riff 2A x3
 |                     Right                     |
e|-----------------------|-----------------------|
B|-----------------------|-----------------------|
G|-----------------------|-----------------------|
D|-----------------------|-----------------------|
A|-----------------------|-----------------------|
E|--0000-1111-4444-2220--|--1111-4444-2222-1111--|
 |  .... .... .... ....     .... .... .... ....  |
 |                                               |
 |                     Left                      |
e|-----------------------|-----------------------|
B|-----------------------|-----------------------|
G|-----------------------|-----------------------|
D|--2--------------------|--3--------------------|
A|--2--------------------|--3--------------------|
E|--0--------------------|--1--------------------|

Riff 2B x1
 |                        Right                        |
e|--------------------------|--------------------------|
B|--------------------------|--------------------------|
G|--------------------------|--------------------------|
D|--------------------------|--------------------------|
A|--------------------------|--------------------------|
E|--0000--1111--4444--2220--|--1111--4444--2222--1111--|
 |  ....  ....  ....  ....     ....  ....  ....  ....  |
 |                                                     |
 |                        Left                         |
e|--------------------------|--------------------------|
B|--------------------------|--------------------------|
G|--------------------------|--------------------------|
D|--2--2--2--2--2--2--2--2--|--------3--3--3--3--3--3--|
A|--2--2--2--2--2--2--2--2--|--3333--3--3--3--3--3--3--|
E|--0--0--0--0--0--0--0--0--|--1111--1--1--1--1--1--1--|

            TIME- 0:39

Fig. 1 x6
e|-----|---------|-----|---------|
B|-----|---------|-----|---------|
G|-----|---------|--3--|---------|
D|--2--|---------|--3--|---------|
A|--2--|--3-2-3--|--1--|--3-2-3--|
E|--0--|---------|-----|---------|

            TIME- 0:59

Riff 2A x3
 |                     Right                     |
e|-----------------------|-----------------------|
B|-----------------------|-----------------------|
G|-----------------------|-----------------------|
D|-----------------------|-----------------------|
A|-----------------------|-----------------------|
E|--0000-1111-4444-2220--|--1111-4444-2222-1111--|
 |  .... .... .... ....     .... .... .... ....  |
 |                                               |
 |                     Left                      |
e|-----------------------|-----------------------|
B|-----------------------|-----------------------|
G|-----------------------|-----------------------|
D|--2--------------------|--3--------------------|
A|--2--------------------|--3--------------------|
E|--0--------------------|--1--------------------|

Riff 2B x1
 |                        Right                        |
e|--------------------------|--------------------------|
B|--------------------------|--------------------------|
G|--------------------------|--------------------------|
D|--------------------------|--------------------------|
A|--------------------------|--------------------------|
E|--0000--1111--4444--2220--|--1111--4444--2222--1111--|
 |  ....  ....  ....  ....     ....  ....  ....  ....  |
 |                                                     |
 |                        Left                         |
e|--------------------------|--------------------------|
B|--------------------------|--------------------------|
G|--------------------------|--------------------------|
D|--2--2--2--2--2--2--2--2--|--------3--3--3--3--3--3--|
A|--2--2--2--2--2--2--2--2--|--3333--3--3--3--3--3--3--|
E|--0--0--0--0--0--0--0--0--|--1111--1--1--1--1--1--1--|

            TIME- 1:12

Riff 3 x2
e|-------------|-------------|-------------|---------------|
B|-------------|-------------|-------------|---------------|
G|-------------|-------------|-------------|---------------|
D|--------3----|--------2----|--------3----|--4-3----------|
A|--6\5---4----|--5\4---3----|--4\3---1----|--2-1----------|
E|--4\3-0---0--|--3\2-0---0--|--2\1-0---0--|------2-1-0-1--|

e|-------------|-------------|-----------------------|
B|-------------|-------------|-----------------------|
G|-------------|-------------|-----------------------|
D|--------3----|--------2----|-----------------------|
A|--6\5---4----|--5\4---3----|-----------------------|
E|--4\3-0---0--|--3\2-0---0--|--1111-4444-2222-5555--|

            TIME- 1:27

Riff 4A x1
e|-------------------------------|---------------------------|
B|-------------------------------|---------------------------|
G|-------------------------------|---------------------------|
D|-------------------------------|------------------------6--|
A|-----------6-5----------6-5-4--|-------6-5----------6-5----|
E|--33333333-----33333333--------|--3333-----33333333--------|
    ........     ........           ....     ........

e|---------------------------|-------------------------|
B|---------------------------|-------------------------|
G|---------------------------|-------------------------|
D|---------------------------|-------------------------|
A|-------6-5----------6-5-4--|-------6-5----------6-5--|
E|--3333-----33333333--------|--3333-----33333333------|
    ....     ........           ....     ........

            TIME- 1:35

Riff 5 x2
e|-----------------|-----------------|-----------------|-----------------|
B|-----------------|-----------------|-----------------|-----------------|
G|-----------------|-----------------|-----------------|-----------------|
D|-----------3333--|-----------------|-----------------|-----------------|
A|-----------------|-----------4444--|-----------3333--|-----------2222--|
E|--11111111-------|--11111111-------|--11111111-------|--11111111-------|

e|-----------------|-----------------|-----------------|-----------------|
B|-----------------|-----------------|-----------------|-----------------|
G|-----------------|-----------------|-----------------|-----------------|
D|-----------3333--|-----------------|-----------------|-----------------|
A|-----------------|-----------4444--|-----------3333--|-----------2222--|
E|--11111111-------|--11111111-------|--11111111-------|--11111111-------|

e|------------------------|
B|------------------------|
G|------------------------|
D|-----------4-3-2-3-4-3--|
A|-----------5-4-3-4-5-4--|
E|--22222222--------------|

            TIME- 1:53

Riff 3 x2
e|-------------|-------------|-------------|---------------|
B|-------------|-------------|-------------|---------------|
G|-------------|-------------|-------------|---------------|
D|--------3----|--------2----|--------3----|--4-3----------|
A|--6\5---4----|--5\4---3----|--4\3---1----|--2-1----------|
E|--4\3-0---0--|--3\2-0---0--|--2\1-0---0--|------2-1-0-1--|

e|-------------|-------------|-----------------------|
B|-------------|-------------|-----------------------|
G|-------------|-------------|-----------------------|
D|--------3----|--------2----|-----------------------|
A|--6\5---4----|--5\4---3----|-----------------------|
E|--4\3-0---0--|--3\2-0---0--|--1111-4444-2222-5555--|

            TIME- 2:08

Riff 4A x1
e|-------------------------------|---------------------------|
B|-------------------------------|---------------------------|
G|-------------------------------|---------------------------|
D|-------------------------------|------------------------6--|
A|-----------6-5----------6-5-4--|-------6-5----------6-5----|
E|--33333333-----33333333--------|--3333-----33333333--------|
    ........     ........           ....     ........

e|---------------------------|-------------------------|
B|---------------------------|-------------------------|
G|---------------------------|-------------------------|
D|---------------------------|-------------------------|
A|-------6-5----------6-5-4--|-------6-5----------6-5--|
E|--3333-----33333333--------|--3333-----33333333------|
    ....     ........           ....     ........

            TIME- 2:15

Riff 5 x2
e|-----------------|-----------------|-----------------|-----------------|
B|-----------------|-----------------|-----------------|-----------------|
G|-----------------|-----------------|-----------------|-----------------|
D|-----------3333--|-----------------|-----------------|-----------------|
A|-----------------|-----------4444--|-----------3333--|-----------2222--|
E|--11111111-------|--11111111-------|--11111111-------|--11111111-------|

e|-----------------|-----------------|-----------------|-----------------|
B|-----------------|-----------------|-----------------|-----------------|
G|-----------------|-----------------|-----------------|-----------------|
D|-----------3333--|-----------------|-----------------|-----------------|
A|-----------------|-----------4444--|-----------3333--|-----------2222--|
E|--11111111-------|--11111111-------|--11111111-------|--11111111-------|

e|------------------------|
B|------------------------|
G|------------------------|
D|-----------4-3-2-3-4-3--|
A|-----------5-4-3-4-5-4--|
E|--22222222--------------|

            TIME- 2:33

Heavy bass

            TIME- 2:35

Fig. 2A x8
e|-----------------|
B|-----------------|
G|-----------------|
D|-----------------|
A|--4-3-2-6-4------|
E|--2-1-0-4-2-0-0--|

Fig. 2B x1
e|-----------------|
B|-----------------|
G|-----------------|
D|-----------------|
A|--4-3-2-6-4---2--|
E|--2-1-0-4-2-0-0--|

            TIME- 2:50

Lead fill

            TIME- 2:52

Riff 6 x4
e|--------------------------------------------------------------|
B|--------------------------------------------------------------|
G|--------------------------------------------------------------|
D|--4-------------2--------------3--------------4---------------|
A|--2-------------3--------------4--------------5---------------|
E|----00000000000---000000000000---000000000000---000000000000--|
      ...........   ............   ............   ............

            TIME- 3:07

Riff 4B x1
e|-------------------------------|---------------------------|
B|-------------------------------|---------------------------|
G|-------------------------------|---------------------------|
D|-------------------------------|------------------------6--|
A|-----------6-5----------6-5-4--|-------6-5----------6-5----|
E|--33333333-----33333333--------|--3333-----33333333--------|
    ........     ........           ....     ........

Riff 4C x2
e|---------------------------|---------------------------|
B|---------------------------|---------------------------|
G|---------------------------|---------------------------|
D|---------------------------|------------------------6--|
A|-------6-5----------6-5-4--|-------6-5----------6-5----|
E|--3333-----33333333--------|--3333-----33333333--------|
    ....     ........           ....     ........

Riff 4D x1
e|---------------------------|-------------------------|
B|---------------------------|-------------------------|
G|---------------------------|-------------------------|
D|---------------------------|-------------------------|
A|-------6-5----------6-5-4--|-------6-5----------6-5--|
E|--3333-----33333333--------|--3333-----33333333------|
    ....     ........           ....     ........

            TIME- 3:22

Riff 5 x2
e|-----------------|-----------------|-----------------|-----------------|
B|-----------------|-----------------|-----------------|-----------------|
G|-----------------|-----------------|-----------------|-----------------|
D|-----------3333--|-----------------|-----------------|-----------------|
A|-----------------|-----------4444--|-----------3333--|-----------2222--|
E|--11111111-------|--11111111-------|--11111111-------|--11111111-------|

e|-----------------|-----------------|-----------------|-----------------|
B|-----------------|-----------------|-----------------|-----------------|
G|-----------------|-----------------|-----------------|-----------------|
D|-----------3333--|-----------------|-----------------|-----------------|
A|-----------------|-----------4444--|-----------3333--|-----------2222--|
E|--11111111-------|--11111111-------|--11111111-------|--11111111-------|

e|------------------------|
B|------------------------|
G|------------------------|
D|-----------4-3-2-3-4-3--|
A|-----------5-4-3-4-5-4--|
E|--22222222--------------|

end-
e|-----|
B|-----|
G|-----|
D|-----|
A|--2--|
E|--0--|

  Visit MetalTabs.com for more metal tablature

bottom separator

Contact Us | Privacy Policy | Disclaimer | Legal Notice
Copyright © 2001-2014 MetalTabs.com. All Rights Reserved.