top separator

Home

Forum

What's New

Submit a Tab

FAQ

Links

Contact Us

Link to Us

MuSpy.com

MetalTabs.com logo

Bands

0-9

A

B

C

D

E

F

G

H

I

J

K

L

M

N

O

P

Q

R

S

T

U

V

W

X

Y

Z

Search

What

Where
 

Dirty Rotten Imbeciles - "Suit And Tie Guy" Guitar Tab

Plain Text Version
More Dirty Rotten Imbeciles Tabs

Hits: 2996
Rated: 2.00 out of 5 (1 vote)
Updated: 2006-06-06 10:28:52

 

By:

crowley_67

sendpm.gif

email.gif

Important note
This tab is available online because we obtained explicit permission from Dirty Rotten Imbeciles or their label.


#----------------------------------PLEASE NOTE---------------------------------#
#This file is the author's own work and represents their interpretation of the #
#song. You may only use this file for private study, scholarship, or research. #
#Unless specified otherwise, this is NOT an official tab from the band members.#
#------------------------------------------------------------------------------#

  Visit MetalTabs.com for more metal tablature
  
Dirty Rotten Embiciles
Four of a kind
Suit and tie guy

Copyright (c)  Restless Records 1988


Transcribed By: 40oz
crowley_67@yahoo.com


.  - palm mute           /  - slide up to
\  - slide down to       ~  - vibrato
h  - hammer on           b  - Bend
p  - pull off            Suffixes for bend
t  - tap                 f  - full bend    h - half bend
ph - pinched harmonic    q  - quarter bend t - tap bend
*  - see comment         ^  - Hold bend    r release bend
x  - Stuccatto           ~  - vibrato bend
,  - slight palm mute    () - ghost note, sustained note
"  - tremolo note        <> - Trill

Tuning E A D G B E


---------------------------------------------------------|
---------------------------------------------------------|
---------------------------------------------------------|
---------------------------------------------------------|
-2---------5-4-5-4--------4---4-5-----5-----5-----5------|
-0--0-0-0--3-2-3-2--2-2-2-2-0-2-3-3-3-3-3-3-3-3-3-3------|




----------------------------------------------------------|
----------------------------------------------------------|
----------------------------------------------------------|
----------------------------------------------------------|
-5-4-2--------5-4-5-4---------5---5-6------6------6------6|
-3-2-0--0-0-0-3-2-3-2--2-2-2--3-0-3-4--4-4-4--4-4-4--4-4-4|



                        2x
--------------------------|-------------------------------|
--------------------------|-------------------------------|
--------------------------|-------------------------------|
--------------------------|-------------------------------|
-6-7-10-----9-----8-----7-|-6-7-10-9----8--7---10-9---8--7|
-4-5-8--8-8-7-7-7-6-6-6-5-|-4-5-8--7----6--5---8--7---6--5|




-----------------|
-----------------|
-----------------|
-----------------|
-6------(6)------|
-4------(4)------|


*BASS
--------------------------------------------|
--------------------------------------------|
--------------------------------------------|
-4-444444--7-777777--6-666666--5-555555-----|


                                    2x
-----------7------6------5------------|
-----------7------6------5------------|
--------------------------------------|
--------------------------------------|
-6-6-6--9------8------7---------------|
-4-4-4--7------6------5---------------|



------------------------------------------------------------|
------------------------------------------------------------|
------------------------------------------------------------|
------------------------------------------------------------|
------------------------------------------------------------|
-4--4-4-4-4-4-4-7--7-7-7-7-7-7-6--6-6-6-6-6-6-5--5-5-5-5-5-5|



                                                          3x
------------------------------------------------------------|
------------------------------------------------------------|
------------------------------------------------------------|
------------------------------------------------6-----------|
------------------------------------------------4-----------|
-4--4-4-4-4-4-4-7--7-7-7-7-7-7-6--6-6-6-6-6-6---------------|



                                     2x
---------------------------------------|
---------------------------------------|
---------------------------------------|
-----7--6--4------------7--6--4--------|
-6---5--4--2----4-5-6---5--4--2--4-5---|
-4--------------2-3-4------------2-3---|





 *play behind solo                                      4x
----------------------------------------------------------|
----------------------------------------------------------|
----------------------------------------------------------|
--------7------6-----4--------------7------6-----4--------|
-6------5------4-----2---4-5-6------5------4-----2---4-5--|
-4--4-4----4-4---4-4-----2-3-4--4-4----4-4---4-4-----2-3--|



*SOLO
------------------------------------------------------------------|
----------------------------b-b-b--------------------------b--19--|
--------------------------4-6-6-6--6-4-----------------16--18-----|
-4--4/6-----(6)------4-6----------------6-4-6---16--18------------|
------------------------------------------------------------------|
------------------------------------------------------------------|





-------------------b---------19--18--16----------------------------|
-b--19-b--16--19---19--19---------------19--16--b------------------|
-18----18---------------------------------------18----18--16-------|
--------------------------------------------------------------18---|
-------------------------------------------------------------------|
-------------------------------------------------------------------|




--------------------------------------|
--------------------------------------|
-16-----------------------------------|
-----18--16--------------/18----(18)--|
-------------18--16--18---------------|
--------------------------------------|




-----------------|
-----------------|
-----------------|
-----------------|
-6------(6)--6---|
-4------(4)--4---|




*BASS
--------------------------------------------|
--------------------------------------------|
--------------------------------------------|
-4-444444--7-777777--6-666666--5-555555-----|




-----------7------6------5------------|
-----------7------6------5------------|
--------------------------------------|
--------------------------------------|
-6-6-6--9------8------7---------------|
-4-4-4--7------6------5---------------|



------------------------------------------------------------|
------------------------------------------------------------|
------------------------------------------------------------|
------------------------------------------------------------|
------------------------------------------------------------|
-4--4-4-4-4-4-4-7--7-7-7-7-7-7-6--6-6-6-6-6-6-5--5-5-5-5-5-5|



                                                          3x
------------------------------------------------------------|
------------------------------------------------------------|
------------------------------------------------------------|
------------------------------------------------6-----------|
------------------------------------------------4-----------|
-4--4-4-4-4-4-4-7--7-7-7-7-7-7-6--6-6-6-6-6-6---------------|



                                    2x
---------------------------------------|
---------------------------------------|
---------------------------------------|
-----7--6--4------------7--6--4--------|
-6---5--4--2----4-5-6---5--4--2--4-5---|
-4--------------2-3-4------------2-3---|




                                                       2x
-4---------------------------4----------------------------|
-4---------------------------4----------------------------|
----------------------------------------------------------|
-6---------------------------6----------------------------|
-6---------------------------6----------------------------|
-4--4-4-4-4-4-4-4-4-4-4-4-4--4--4-4-4-4-4-4-4-4-4-4-4-4---|




*play behind solo                    2x
---------------------------------------|
---------------------------------------|
---------------------------------------|
-----7--6--4------------7--6--4--------|
-6---5--4--2----4-5-6---5--4--2--4-5---|
-4--------------2-3-4------------2-3---|




*SOLO                    dip w/bar
------------------------------------------------------------------|
---------h-p---~~-----hphphph---------------------------------b---|
--------4-6-4-6------4646464h--------0---------16-18-16-18-16-18--|
-/6-----------------------------~~-------/18----------------------|
------------------------------\2----------------------------------|
-------------------------------b----------------------------------|





----------------b--b-------19-18-16--------b----------------------|
-16-19-16-19-16-19-19----------------19-16-19----16---16---16-----|
-------------------------------------------------18b--18b--18b----|
------------------------------------------------------------------|
------------------------------------------------------------------|
------------------------------------------------------------------|




                                            dive w/bar
-------------------------------------------nh--------|
-------------------------------------------5---------|
-16-18-16-----16-18-16-------------7---6-------------|
----------18-----------/18------6--------------------|
-----------------------------------------------------|
-----------------------------------------------------|




------------------------------------------------------------|
------------------------------------------------------------|
------------------------------------------------------------|
------------------------------------------------------------|
-6--------------------------7-7-6---------------------------|
-4--4-4-4-4-4-4-4-4-4-4-4-4-5-5-4-4-4-4-4-4-4-4-4-4-4-4-4---|




------------------------------------------------------------|
------------------------------------------------------------|
------------------------------------------------------------|
------------------------------------------------------------|
-9-7-6----------------------7-7-6---6----(6)------(6)-------|
-7-5-4--4-4-4-4-4-4-4-4-4-4-5-5-4---4----(4)------(4)-------|



*outro solo                                 bend/dive w/bar
------4-4-----b------------------------------------------------|
-b--4---4--4--7--7-6-4-----------------------------------------|
-6---------------------6--4------------------------------------|
----------------------------6-5-4-----------b------------------|
----------------------------------6-5-4-3-2-1---------(1)----6-|
-------------------------------------------------------------4-|

  Visit MetalTabs.com for more metal tablature

bottom separator

Contact Us | Privacy Policy | Disclaimer | Legal Notice
Copyright © 2001-2014 MetalTabs.com. All Rights Reserved.