top separator

Home

Forum

What's New

Submit a Tab

FAQ

Links

Contact Us

Link to Us

MetalTabs.com logo

Bands

0-9

A

B

C

D

E

F

G

H

I

J

K

L

M

N

O

P

Q

R

S

T

U

V

W

X

Y

Z

Search

What

Where
 

Impaled - "Preservation of Death" Guitar Tab

Plain Text Version
More Impaled Tabs

Hits: 2649
Rated: 2.67 out of 5 (6 votes)
Updated: 2006-03-10 04:17:51

 

By:

grinder

sendpm.gif

email.gif

Important note
This tab is available online because we obtained explicit permission from Impaled or their label.


#----------------------------------PLEASE NOTE---------------------------------#
#This file is the author's own work and represents their interpretation of the #
#song. You may only use this file for private study, scholarship, or research. #
#Unless specified otherwise, this is NOT an official tab from the band members.#
#------------------------------------------------------------------------------#

  Visit MetalTabs.com for more metal tablature
  
Band:  Impaled
Album: (Death After Life
Song:  Preservations of Death

Transcribed By: grinder
Email:          grinder@devourment.net


.  - palm mute
/  - slide up to
\  - slide down to

Tuning E A D G B e

|-------------------------------------------------------------------|
|-------------------------------------------------------------------|
|-------------------------------------------------------------------|
|-------------------------------------------------------------------|
|-3---------2---------5---------7-4-3---------5---------3---------3-5|
|-1-0-0-0-0-0-0-0-0-0-3-0-0-0-0-5-2-1-0-0-0-0-3-0-0-0-0-1-0-0-0-0-1-3|(2x)
    . . . .   . . . .   . . . .       . . . .   . . . .   . . . .

|------|
|------|
|------|
|------|
|-3----|
|-1----|(let ring)

|---------------------------------------------------------------------------|
|---------------------------------------------------------------------------|
|---------------------------------------------------------------------------|
|---------------------------------------------------------------------------|
|-2-3------2/3---5\4---2-3--4/5------4/5---6\5---4/5------6-5--5-5-5-4-4-4-2|
|-0-1--0-0-0/1-0-3\2-0-0-1--2/3--2-2-2/3-2-4\3-2-2/3--2-2-4-3--3-3-3-2-2-2-0|
       . . . . . . . .      . .  . . . . . . . . . .  . .      . . . . . . .
                                     (2x)
|---------------------------------------------------------------------------|
|---------------------------------------------------------------------------|
|---------------------------------------------------------------------------|
|---------------------------------------------------------------------------|
|-2------2-3------3-2------2-3--2-2-3--5-----8-4---2-3-5---2-3-5-5-5-4-4-4-2|
|-0--0-0-0-1--1-1-1-0--0-0-0-1--0-0-1--3-3-3-6-2-2-0-1-3-0-0-1-3-3-3-2-2-2-0|
     . .      . .      . .      .        . .     .       .     . . . . . . .
                                (2x)
|---------------------------------------------------------------------------|
|---------------------------------------------------------------------------|
|---------------------------------------------------------------------------|
|---------------------------------------------------------------------------|
|-2-3------2/3---5\4---2-3--4/5------4/5---6\5---4/5------6-5--5-5-5-4-4-4-2|
|-0-1--0-0-0/1-0-3\2-0-0-1--2/3--2-2-2/3-2-4\3-2-2/3--2-2-4-3--3-3-3-2-2-2-0|
       . . . . . . . .      . .  . . . . . . . . . .  . .      . . . . . . .
                                (2x)
|---------------------------------------------------------------------------|
|---------------------------------------------------------------------------|
|---------------------------------------------------------------------------|
|---------------------------------------------------------------------------|
|-2------2-3------3-2------2-3--2-2-3--5-----8-4---2-3-5---2-3-5-5-5-4-4-4-2|
|-0--0-0-0-1--1-1-1-0--0-0-0-1--0-0-1--3-3-3-6-2-2-0-1-3-0-0-1-3-3-3-2-2-2-0|
     . .      . .      . .      .        . .     .       .     . . . . . . .
                                (2x)

thats all i got
comments or corrections to: grinder@devourment.net

  Visit MetalTabs.com for more metal tablature

bottom separator

Contact Us | Privacy Policy | Disclaimer | Legal Notice
Copyright © 2001-2014 MetalTabs.com. All Rights Reserved.