top separator

Home

Forum

What's New

Submit a Tab

FAQ

Links

Contact Us

Link to Us

MuSpy.com

MetalTabs.com logo

Bands

0-9

A

B

C

D

E

F

G

H

I

J

K

L

M

N

O

P

Q

R

S

T

U

V

W

X

Y

Z

Search

What

Where
 

Decapitated - "Post(?) Organic" Guitar Tab

Plain Text Version
More Decapitated Tabs

Hits: 9446
Rated: 4.00 out of 5 (9 votes)
Updated: 2006-03-10 04:17:36

 

By:

Robbie Filth

sendpm.gif

email.gif

Important note
This tab is available online because we obtained explicit permission from Decapitated or their label.


#----------------------------------PLEASE NOTE---------------------------------#
#This file is the author's own work and represents their interpretation of the #
#song. You may only use this file for private study, scholarship, or research. #
#Unless specified otherwise, this is NOT an official tab from the band members.#
#------------------------------------------------------------------------------#

  Visit MetalTabs.com for more metal tablature
  
Band: Decapitated
Album: Organic Hallucinosis
Song: Post (?) Organic
Record Label: Earache
Tuning: C# F# B E G# C#

------------------------
------------------------
------------------------
------------------------
vib---------whammy------
-0-------------0--------
Ok on the whammy its a slow dive down.

00:12                      End 1          End 2
----------X4----------------------------------------------
----------------------------------------------------------
----------------------------------------------------------
----------------------------------------------------------
-------2-----------4------------------------5-6-----------
-4-3-0---4-0-4-3-0---4-0---444-666-000--1/4-3-4-44444400--
 pm. . . . . . . .   . .    ... ... ...       . . ........
This part is extremely quick.

                                                End 1/3       End 2/4
------------------X2----------------------------------------------------------
------------------------------------------------------------------------------
------------------------------------------------------------------------------
------------------------------------------------------------------------------
-------2-----------4---------2-----------4-----------------------5-6----------
-4-3-0---4-0-4-3-0-----4-3-0---4-0-4-3-0---4-0--444-666-000--1/4-3-4-44444400-
 pm. . . . . . . .     . . . . . . . . .   . .   ... ... ...
This part is extremely quick.

----------------------------------------------------------------------------
----------------------------------------------------------------------------
-----8-----------------8-------------------8-----------------8--------------
-----5-----------------5-------------------5-----------------5-8------------
-2-2-6-22222222222-2-2-6-2-2-2-2-2-2-2-2-2-6-22222222222-2-2-6-6-222-2-2-2--
-0-0---00000000000-0-0---0-0-0-0-0-0-0-0-0---00000000000-0-0-----000-0-0-0--
 pm.   ........... . .   . . .   . .   . .   ........... . .     ... . .


-----------------------------------------------------------------------------
-----------------------------------------------------------------------------
-----8-----------------8-------------------8-----------------8---------------
-----5-----------------5-------------------5-----------------5---------------
-2-2-6-22222222222-2-2-6-2-2-2-2-2-2-2-2-2-6-22222222222-2-2-6-22222222222-2-
-0-0---00000000000-0-0---0-0-0-0-0-0-0-0-0---00000000000-0-0---00000000000-0-
 pm.   ........... . .   . . .   . .   . .   ........... . .   ...........

Under Solo                 End 1/3       End 3/4
----------X4----------------------------------------------
----------------------------------------------------------
----------------------------------------------------------
----------------------------------------------------------
-------2-----------4------------------------5-6-----------
-4-3-0---4-0-4-3-0---4-0---444-666-000--1/4-3-4-44444400--
 pm. . . . . . . .   . .    ... ... ...       . . ........
This part is extremely quick.

                                              End 1/3       End 2/4
------------------X2----------------------------------------------------------
------------------------------------------------------------------------------
------------------------------------------------------------------------------
------------------------------------------------------------------------------
-------2-----------4---------2-----------4-----------------------5-6----------
-4-3-0---4-0-4-3-0-----4-3-0---4-0-4-3-0---4-0--444-666-000--1/4-3-4-44444400-
 pm. . . . . . . .     . . . . . . . . .   . .   ... ... ...
This part is extremely quick.

----------------------------------------------------------------------------
----------------------------------------------------------------------------
-----8-----------------8-------------------8-----------------8--------------
-----5-----------------5-------------------5-----------------5-8------------
-2-2-6-22222222222-2-2-6-2-2-2-2-2-2-2-2-2-6-22222222222-2-2-6-6-222-2-2-2--
-0-0---00000000000-0-0---0-0-0-0-0-0-0-0-0---00000000000-0-0-----000-0-0-0--
 pm.   ........... . .   . . .   . .   . .   ........... . .     ... . .


-----------------------------------------------------------------------------
-----------------------------------------------------------------------------
-----8-----------------8-------------------8-----------------8---------------
-----5-----------------5-------------------5-----------------5---------------
-2-2-6-22222222222-2-2-6-2-2-2-2-2-2-2-2-2-6-22222222222-2-2-6-22222222222-2-
-0-0---00000000000-0-0---0-0-0-0-0-0-0-0-0---00000000000-0-0---00000000000-0-
 pm.   ........... . .   . . .   . .   . .   ........... . .   ...........

-----------------------------------------------------
-----------------------------------------------------
-----------------------------------------------------
-----------------------------------------------------
-5-555-2-2-22-5-555-2-2-22-5-555-2-2-22-5-555-5-555--
-3-333-0-0-00-3-333-0-0-00-3-333-0-0-00-3-333-3-333--X4
 pm... . . .. . ... . . .. . ... . . .. . ... . ...


------------------------------------------------------------------------------
------------------------------------------------------------------------------
------------------------------------------------------------------------------
-4-4-----------------------------3-3-----------------------------6-6-6--------
-2-2-3-3-4\4/5\4-2-2-2222-2-2222-1-1-4-4-3/4\3/4-2-2-2222-2-2222-4-4-4-5-5-5--
-----1-1-3\2/3\2-0-0-0000-0-0000-----2-2-1/2\1/2-0-0-0000-0-0000-------3-3-3--
                 pm. .... . ....                 . . .... . ....
----------------------------------------------
----------------------------------------------
----------------------------------------------
-----------------4-4-4-4-3-3------------------
-2-2-2222-2-2222-2-2-1-1-1-1-2-2-2222-2-2222--
-0-0-0000-0-0000-------------0-0-0000-0-0000--continued from above
 . . .... . ....             . . .... . ....

------------------------------------------------------------------------------
------------------------------------------------------------------------------
------------------------------------------------------------------------------
-4-4-----------------------------3-3-----------------------------6-6-6--------
-2-2-3-3-4\4/5\4-2-2-2222-2-2222-1-1-4-4-3/4\3/4-2-2-2222-2-2222-4-4-4-5-5-5--
-----1-1-3\2/3\2-0-0-0000-0-0000-----2-2-1/2\1/2-0-0-0000-0-0000-------3-3-3--
                 pm. .... . ....                 . . .... . ....

----------------------------------------------------------------------------
----------------------------------------------------------------------------
----------------------------------------------------------------------------
-----------------4-4-4-4-3-3------------------------------------------------
-2-2-2222-2-2222-2-2-1-1-1-1-2-2-2222-2-2222-2-2222-2-2222-2-2222-2-2222-2--
-0-0-0000-0-0000-------------0-0-0000-3-0000-3-0000-3-0000-3-0000-3-0000-0--
 . . .... . ....             . . .... . .... . .... . .... . .... . ....let ring

------------------------------------------------------------------
------------------------------------------------------------------
------------------------------------------------------------------
-----------0-0-4-5-7-7----6--------------0-0-4-5-5-5-5----4-------
---------------------------------------------------------------4--
-333333333--3-3-3-3------------333333333--3-3-3-------------------X3
 pm.......                     .........
 trem...........................................................


------------------------------------------------------------------
------------------------------------------------------------------
------------------------------------------------------------------
-----------0-0-4-5-7-7----6--------------0-0-4-5-5-5-5----4----6--
---------------------------------------------------------------4--
-333333333--3-3-3-3------------333333333--3-3-3-------------------X3
 pm.......                     .........
 trem...........................................................


----------------------------------------------------------------------------
----------------------------------------------------------------------------
-----8-----------------8-------------------8-----------------8--------------
-----5-----------------5-------------------5-----------------5-8------------
-2-2-6-22222222222-2-2-6-2-2-2-2-2-2-2-2-2-6-22222222222-2-2-6-6-222-2-2-2--
-0-0---00000000000-0-0---0-0-0-0-0-0-0-0-0---00000000000-0-0-----000-0-0-0--
 pm.   ........... . .   . . .   . .   . .   ........... . .     ... . .


-----------------------------------------------------------------------------
-----------------------------------------------------------------------------
-----8-----------------8-------------------8-----------------8---------------
-----5-----------------5-------------------5-----------------5---------------
-2-2-6-22222222222-2-2-6-2-2-2-2-2-2-2-2-2-6-22222222222-2-2-6-22222222222-2-
-0-0---00000000000-0-0---0-0-0-0-0-0-0-0-0---00000000000-0-0---00000000000-0-
 pm.   ........... . .   . . .   . .   . .   ........... . .   ...........

-----------X2--------------------------------------------------
---------------------------------------------------------------
---------------------------------------------------------------
---------------------------------------------------------------
-222-222-222-222-222-222-222-222--222-222-2222222222222222222--
-000-000-000-000-000-000-000-000--000-000-0000000000000000000--X4
 pm. ... ... ... ... ... ... ...   ... ... ...................

4:30
---------------------------------------------------
---------------------------------------------------
---------------------------------------------------
---------------------------------------------------
-----------1-------4-------------------------------
-330-000-33--000-33--000-330-000-000-000000000000--Repeats this until faded out.
 pm  ... ..  ... ..  ... ..  ... ... ............

THE END

Any corrections mail them to: septic_flesh241@hotmail.com

  Visit MetalTabs.com for more metal tablature

bottom separator

Contact Us | Privacy Policy | Disclaimer | Legal Notice
Copyright © 2001-2014 MetalTabs.com. All Rights Reserved.