top separator

Home

Forum

What's New

Submit a Tab

FAQ

Links

Contact Us

Link to Us

MuSpy.com

MetalTabs.com logo

Bands

0-9

A

B

C

D

E

F

G

H

I

J

K

L

M

N

O

P

Q

R

S

T

U

V

W

X

Y

Z

Search

What

Where
 

Falconer - "Ravenhair" Guitar Tab

Plain Text Version
More Falconer Tabs

Hits: 2292
Rated: 4.00 out of 5 (1 vote)
Updated: 2006-03-10 04:17:11

 

By:

Daniil

sendpm.gif

email.gif

Important note
This tab is available online because we obtained explicit permission from Falconer or their label.


#----------------------------------PLEASE NOTE---------------------------------#
#This file is the author's own work and represents their interpretation of the #
#song. You may only use this file for private study, scholarship, or research. #
#Unless specified otherwise, this is NOT an official tab from the band members.#
#------------------------------------------------------------------------------#

  Visit MetalTabs.com for more metal tablature
  
FALCONER-Ravenhair
The Sceptre Of Deception-2003
Copyright Me3tal Blade Records
Transcribed by Daniil Laletin
e-mail: dlaletin@mail.ru
version 1.0 February 2006

All corrections are welcome.

 " - tremolo
 / - slide down
 \ - slide up
 . - palm mute
 ~ - long sound
 x - rest
 p - pull off
 h - hammer on
 tr - trill
 () - ghost note, sustained note
 * - artificial harmonics
 b - bend

 Tuning from low to high: D G C F A D

================================

 Riff 1a
|------------------------------------|
|------------------------------------|
|------5----4------5------2-4-5-7~-5-|
|------------------------------------|gtr 1
|-0000---00---0000---0000------------|
|-....---..---....---....------------|
|
|------------------------------------|
|------------------------------------|
|------------------------------------|
|------------------------------------|gtr 2
|-------------------------------5--3-|
|-5"----------------------------7--5-|
  .
|------------------------------------|
|------------------------------------|
|------4----2------4------0-2-4-5~-4-|
|------------------------------------|gtr 1
|------------------------------------|
|-3333---33---3333---3333------------|
| ....   ..   ....   ....
|------------------------------------|
|------------------------------------|
|------------------------------------|
|------------------------------------|gtr 2
|-------------------------------3--2-|
|-3"----------------------------5--3-|
  .
|------------------------------------|
|------------------------------------|
|------2----0------2----------2-4~-2-|
|-------------------------3-5--------|gtr 1
|------------------------------------|
|-1111---11---1111---1111------------|
| ...   ..   ....   ....
|------------------------------------|
|------------------------------------|
|------------------------------------|
|------------------------------------|gtr 2
|-------------------------------2--0-|
|-1"----------------------------3--1-|
  .
|------------------------------------|
|---------------------------------5--|
|---------------1~-------4~----------|
|------2~----------------------------|gtr 1
|------------------------------------|
|-0000-----0000-----0000-----0000----|
| ....     ....     ....     ....
|------------------------------------|
|---------------------------------5--|
|---------------1~-------4~----------|
|------2~----------------------------|gtr 2
|------------------------------------|
|-0000-----0000-----0000-----0000----|
  ....     ....     ....     ....

 Riff 1b
|------------------------------------|
|------5----3------5--------3-5-6~-5-|
|-------------------------5----------|
|------------------------------------|gtr 1
|-0000---00---0000---0000------------|
|-....---..---....---....------------|
|
|------------------------------------|
|------------------------------------|
|------5----4------5------2-4-5-7~-5-|
|------------------------------------|gtr 2
|-0000---00---0000---0000------------|
|-....---..---....---....------------|

|------------------------------------|
|------3-----------3----------3-5~-3-|
|-----------5-------------4-5--------|
|------------------------------------|gtr 1
|------------------------------------|
|-3333---33---3333---3333------------|
| ....   ..   ....   ....
|------------------------------------|
|------------------------------------|
|------4----2------4------0-2-4-5~-4-|
|------------------------------------|gtr 2
|------------------------------------|
|-3333---33---3333---3333------------|
  ....   ..   ....   ....
|------------------------------------|
|------------------------------------|
|------5----4------5------2-4-5-7~-5-|
|------------------------------------|gtr 1
|------------------------------------|
|-1111---11---1111---1111------------|
| ....   ..   ....   ....
|------------------------------------|
|------------------------------------|
|------2----0------2----------2-4~-2-|
|-------------------------3-5--------|gtr 2
|------------------------------------|
|-1111---11---1111---1111------------|
  ....   ..   ....   ....

|----------------------------------|
|--------------------------5-3-----|
|------4---1------1--1-2-4-----5-4-|
|----------------------------------|gtr 1
|----------------------------------|
|-0000--00---0000------------------|
| ....  ..   ....
|----------------------------------|
|--------------------------5-3-----|
|---------1111111144444444-----5-4-|
|-----2222................---------|gtr 2
|-----....-------------------------|
|-0000-----------------------------|
  ....


 Riff 2
|-----------------------------------------------|
|-----------------------------------------------|
|--------------------------------9--7--5--7-----|
|---------------9---/12-9-7-99--10--9--7--9--\--|both
|-7---5-7-5-77--7---/10-7-5-77---7--5--3--5--\--|
|-5---3-5-3-55----------.-.---------------------|

 Riff 2 first ending
|---------------------------------------------------------------|
|---------------------------------------------------------------|
|---------------------------------------------------------------|
|-------7--2-5-3--3-7-3-/5-5-9-5-------7--2-5-3--3-7-3-/6-6-9-6-|both
|-0-000--------------------------0-000--------------------------|
|---...--------------------------.-...--------------------------|

 Riff 2 second ending
|------------------|
|------------------|
|-7----------------|
|-5-9-7---7-9-9----|both
|---7-5-9-5-7-7-2--|
|-------7---7-7-0--|


 Riff 3
|----------------------------------|
|----------------------------------|
|---9p7--------------------5-------|
|---------9h10-5h7-----5-----7-5-7-|gtr 1
|-0-----0------------7---7---------|
|----------------------------------|
|
|----------------------------------|
|----------------------------------|
|----------------------------------|
|-7-----7------------7-7-7-7-7-7-7-|gtr 2
|-7-----7------------7-7-7-7-7-7-7-|
|-5-----5------------5-5-5-5-5-5-5-|
  .     .
|----------------------------------|
|----------------------------------|
|---9p7--------------------5---5-7-|
|---------9h10-5h7-----5-----7-----|gtr 1
|-0-----0------------7---7---------|
|----------------------------------|
|
|----------------------------------|
|----------------------------------|
|----------------------------------|
|-7-----7------------7-7-7-7-7-7-7-|gtr 2
|-7-----7------------7-7-7-7-7-7-5-|
|-5-----5------------5-5-5-5-5-5---|
  .     .
|------------------------------|
|-6-6h8p6\5--------------------|
|--------------4-5-7-/9\7-5-4--|
|------------------------------|gtr 1
|------------------------------|
|------------------------------|
|
|------------------------------|
|------------------------------|
|------------------------------|
|------------9-----------------|gtr 2
|------------7-----------------|
|------------------------------|

|---------------b-b-------------|
|---------------5-5-10p8p5h10~--|
|-9p7---------------------------|
|-----9h10-5h7------------------|gtr 1
|-------------------------------|
|-------------------------------|
|
|-------------------------------|
|-------------------------------|
|-------------------------------|
|-9-7--4-5----------------------|gtr 2
|-7-5--2-3-5-7------------------|
|----------3-5------------------|



 Riff 4 - acoustic
|------------------------------------------5-----|
|-----10-10-6~-----8-10-8-6-5~---6-5---5-----5~--|
|------------------------------------7---7-------|
|------------------------------------------------|gtr 1
|------------------------------------------------|
|------------------------------------------------|
|
|-1~~-------------------------1------------------|
|-3~~---------1~~-------------3----3---1~~-------|
|-2~~---------2~~-------------2----0---2~~-------|
|-0~~---------2~~-------------0----0---2~~-------|gtr 2
|-------------0~~------------------2---0~~-------|
|------------------------------------------------|

|----------------------------------------------------|
|------10-10-6~-----8-10-8-6-5~------------4-5-4-5~--|
|--------------------------------4-5-4-2-4-----------|
|----------------------------------------------------|gtr 1
|----------------------------------------------------|
|----------------------------------------------------|
|
|-1~~------------------------------------------------|
|-3~~----------1~~---------------0~~-----------------|
|-2~~----------2~~---------------1~~-----------------|
|-0~~----------2~~---------------2~~-----------------|gtr 2
|--------------0~~---------------2~~-----------------|
|----------------------------------------------------|



 Riff 5                              1,3
|---------------------------------------|
|---------------------------------------|
|---------------------------------------|
|-7-7-7-----------7-7-7-----------------|both
|-5-5-5---7-7-7---5-5-5-5-5-5-7-7-5-7---|
|---------5-5-5---------3-3-3-5-5-3-5---|
                                      2
|--------------------------------------|
|--------------------------5-3---------|
|-----------------------4------5-4-2-0-|
|-7-7-7-----------4-5-2-2--------------|both
|-5-5-5---7-7-7---2-3-0----------------|
|---------5-5-5------------------------|
                         4
|-------------------------|
|-------------------------|
|-----------------------4-|
|-7-7-7-----------4-5-2-2-|both
|-5-5-5---7-7-7---2-3-0---|
|---------5-5-5-----------|


 Riff 6                                  1,3
|-------------------------------------------|
|-------------------------------------------|
|-2-4---------------------------------------|
|-0-2-3----3-3-----5------------5-----------|both
|-0-2-3----3-3--7--3-7-5-7--7-7-3-7-5-2-5-7-|
|-----1----1-1--5----5-3-5--5-5---5-3-0-3-5-|
           . .                                         2
|-------------------------------------------------------|
|-------------------------------------------------------|
|-----------7-----7-----7---5-7-9-----9-----7-7-7-4-4-4-|
|-3----3-3--7-----7-----7---5-7-9-----9-----5-5-5-2-2-2-|both
|-3----3-3--5-5-5-5-5-5-5-5-3-5-7-7-7-7-7-7-------------|
|-1----1-1----5-5---5-5---5-------7-7---7-7-------------|
       . .    . .   . .   .       . .   . .
                                         4
|-----------------------------------------|
|-----------------------------------------|
|-----------7--7-7------------------------|
|-3----3-3--7--7-7-7--7-7-9-9-5-5-7-7-7-7-|both
|-3----3-3--5--5-5-7--7-7-7-7-5-5-7-7-7-7-|
|-1----1-1-----.-.-5--5-5-7-7-3-3-5-5-5-5-|
       . .            . .


 Riff 1c
|------------------------------------|
|------------------------------------|
|-2222-5-22-4-2222-5-2222-2-4-5-7~-5-|
|-....---..---....---....------------|gtr 1
|------------------------------------|
|------------------------------------|
|
|------------------------------------|
|------------------------------------|
|------5----4------5------2-4-5-7~-5-|
|------------------------------------|gtr 2
|-0000---00---0000---0000------------|
|-....---..---....---....------------|

|------------------------------------|
|------------------------------------|
|-0000-4-00-2-0000-4-0000-0-2-4-5~-4-|
|-....---..---....---....------------|gtr 1
|------------------------------------|
|------------------------------------|
|
|------------------------------------|
|------------------------------------|
|------4----2------4------0-2-4-5~-4-|
|------------------------------------|gtr 2
|------------------------------------|
|-3333---33---3333---3333------------|
  ....   ..   ....   ....
|------------------------------------|
|------------------------------------|
|------2----0------2----------2-4~-2-|
|-3333---33---3333---3333-3-5--------|gtr 1
|-....---..---....---....------------|
|------------------------------------|
|
|------------------------------------|
|------------------------------------|
|------2----0------2----------2-4~-2-|
|-------------------------3-5--------|gtr 2
|------------------------------------|
|-1111---11---1111---1111------------|
  ....   ..   ....   ....

|------------------------------------|
|---------------------------------5--|
|---------------1~-------4~----------|
|------2~----------------------------|gtr 1
|------------------------------------|
|-0000-----0000-----0000-----0000----|
| ....     ....     ....     ....
|------------------------------------|
|---------------------------------5--|
|---------------1~-------4~----------|
|------2~----------------------------|gtr 2
|------------------------------------|
|-0000-----0000-----0000-----0000----|
  ....     ....     ....     ....

 Riff 1d
|------------------------------------|
|------5----3------5--------3-5-6~-5-|
|-2222---22---2222---2222-5----------|
|-....---..---....---....------------|gtr 1
|------------------------------------|
|------------------------------------|
|
|------------------------------------|
|------------------------------------|
|------5----4------5------2-4-5-7~-5-|
|------------------------------------|gtr 2
|-0000---00---0000---0000------------|
|-....---..---....---....------------|

|------------------------------------|
|------3----1------3----------3-5~-3-|
|-0000---00---0000---0000-4-5--------|
|-....---..---....---....------------|gtr 1
|------------------------------------|
|------------------------------------|
|
|------------------------------------|
|------------------------------------|
|------4----2------4------0-2-4-5~-4-|
|------------------------------------|gtr 2
|------------------------------------|
|-3333---33---3333---3333------------|
  ....   ..   ....   ....
|------------------------------------|
|------------------------------------|
|------5----4------5------2-4-5-7~-5-|
|-3333---33---3333---3333------------|gtr 1
|-....---..---....---....------------|
|------------------------------------|
|
|------------------------------------|
|------------------------------------|
|------2----0------2----------2-4~-2-|
|-------------------------3-5--------|gtr 2
|------------------------------------|
|-1111---11---1111---1111------------|
  ....   ..   ....   ....

|----------------------------------|
|--------------------------5-3-----|
|------4---1------1--1-2-4-----5-4-|
|----------------------------------|gtr 1
|----------------------------------|
|-0000--00---0000------------------|
| ....  ..   ....
|----------------------------------|
|--------------------------5-3-----|
|---------1111111144444444-----5-4-|
|-----2222................---------|gtr 2
|-----....-------------------------|
|-0000-----------------------------|
  ....


 Solo riff                              x2
|-----------------------------------------|
|-------------6----6----6---8----8----8---|
|-2-----------5----5----5---7----7----7---|
|-2-----------3333333333333-5555555555555-|
|-0-0"---------....-....-..--....-....-..-|
|---.-------------------------------------|

|-----------------------------------------------------|
|-----------------------------------------------------|
|-5---------------2-----------------------2-----------|
|-5-------5-------2-------2-------3-------2-------2---|
|-3-3"----5-------0-0"----2-------3-------0-0"----2---|
|---------3-3"------------0-0"----1-1"------------0---|


 Ending riff
|----------------5\---|
|--------------5------|
|----------2-5--------|
|-4-5---2-------------|both
|-2-3-5-0-------------|
|-----3---------------|

  Visit MetalTabs.com for more metal tablature

bottom separator

Contact Us | Privacy Policy | Disclaimer | Legal Notice
Copyright © 2001-2014 MetalTabs.com. All Rights Reserved.