top separator

Home

Forum

What's New

Submit a Tab

FAQ

Links

Contact Us

Link to Us

MuSpy.com

MetalTabs.com logo

Bands

0-9

A

B

C

D

E

F

G

H

I

J

K

L

M

N

O

P

Q

R

S

T

U

V

W

X

Y

Z

Search

What

Where
 

Grip Inc. - "Hostage To Heaven" Guitar Tab

Plain Text Version
More Grip Inc. Tabs

Hits: 4607
Rated: 4.60 out of 5 (5 votes)
Updated: 2006-03-10 04:14:05

 

By:

travI56669

sendpm.gif

email.gif

Important note
We did our best to reach Grip Inc. and ask for their permission to publish this tab. Unfortunately they did not respond to our requests or we could not find a way to contact them. This tab is available online until Grip Inc. tells us to take it down.


#----------------------------------PLEASE NOTE---------------------------------#
#This file is the author's own work and represents their interpretation of the #
#song. You may only use this file for private study, scholarship, or research. #
#Unless specified otherwise, this is NOT an official tab from the band members.#
#------------------------------------------------------------------------------#

  Visit MetalTabs.com for more metal tablature
  
Band:  Grip inc.
Album: Power of Inner Strength
Song:  Hostage to Heaven

Copyright (c)  Metal Blade   1995
Version 1.0 -  2/24/06

Transcribed By: travI56669
Email:          marilynmaggot@yahoo.com


.  - palm mute           /  - slide up to
\  - slide down to       ~  - vibrato
h  - hammer on           b  - Bend
p  - pull off            Suffixes for bend
t  - tap                 f  - full bend    h - half bend
ph - pinched harmonic    q  - quarter bend t - tap bend
*  - see comment         ^  - Hold bend    r release bend
x  - Stuccatto           ~  - vibrato bend
,  - slight palm mute    () - ghost note, sustained note
"  - tremolo note        <> - Trill
So this song is pretty repetitive but it's worth it because of the solo...
E-mail me with comments (on what a good job I did) or corrections (fuck off!)
Tuning D standard
                              1.3.___________________________
|----------------------------||------------------------------|
|----------------------------||------------------------------|
|----------------------------||------------------------------|
|-9-9-9-9-9-9-9-9-9-9-9-9-9--||-------9---------------10-----|
|-7-7-7-7-7-7-7-7-7-7-7-7-7--||-7-----------7-----8--------6-|
|-0-0-0-0-0-0-0-0-0-0-0-0-0--||---0-0---0-0---0-0---0----0---|
                                  . .   . .   . .   .    .
2. _______________________________ 4._____________________________
|----------------------------------|------------------------------|
|----------------------------------|------------------------------|
|----------------------------------|------------------------------|
|--------9---------------10---9-10-|-------9----------------------|
|--7-----------7-----8-------------|-7-----------7-----3----------|
|----0-0---0-0---0-0---0----0------|---0-0---0-0---0-0-1--3-1-0-1-|
     . .   . .   . .   .    .          . .   . .   . .    . . . .
 ____________1.2.3.__4.
|------------|---|----|
|------------|---|----|
|------------|---|----|
|------------|---|-9--|
|---3-----3p-|-2-|-7--|
|-0-1--0--1p-|-0-|----|
  .    .                                            1.3.______________________
|--------------------------|----------------------||--------------------------|
|--------------------------|----------------------||--------------------------|
|--------------------------|----------------------||--------------------------|
|--------------------------|----------------------||-------9-------------10---|
|--10---10-10----9----9-9--|--10---10-10--99\21/--||-7-----------7-----8----6-|
|-0-8--0-8--8--0-7--0-7-7--|-0-8--0-8--8--77\19/--||---0-0---0-0---0-0--0--0--|
  .    .       .    .        .    .                    . .   . .   . .  .  .

 2.________________________________ 4._____________________________
| ----------------------------------|-------------------------------|
| ----------------------------------|-------------------------------|
| ----------------------------------|-------------------------------|
| --------9---------------10---9-10-|-9-9-9-9-9-9-9-9-9-------------|
| --7-----------7-----8-------------|-7-7-7-7-7-7-7-7-7-------------|
| ----0-0---0-0---0-0---0----0------|-0-0-0-0-0-0-0-0-0-0h1h3p1p0h1-|
      . .   . .   . .   .    .

1.3.__________________________  2.________________________________
|------------------------------|----------------------------------|
|------------------------------|----------------------------------|
|------------------------------|----------------------------------|
|-------9---------------10-----|--------9---------------10---9-10-|
|-7-----------7-----8--------6-|--7-----------7-----8-------------|
|---0-0---0-0---0-0---0----0---|----0-0---0-0---0-0---0----0------|
    . .   . .   . .   .    .        . .   . .   . .   .    .

|-------------------|
|-------------------|
|-------------------|
|-9-9-9-9-9-9-9-9-9-|
|-7-7-7-7-7-7-7-7-7-|
|-0-0-0-0-0-0-0-0-0-|

|------------------------|----|----|----|---|------------------------|
|------------------------|----|----|----|---|------------------------|
|------------------------|-11-|-10-|-10-|-9-|------------------------|
|-9-9-9-9-9-9-9-9-8------|----|----|----|---|-9-9-9-9-9-9-9-9-8--14/-|
|-7-7-7-7-7-7-7-7-7-2--2-|--8-|--8-|--7-|-7-|-7-7-7-7-7-7-7-7-7--12/-|
|-0-0-0-0-0-0-0-0-0-0--0-|----|----|----|---|-0-0-0-0-0-0-0-0-0------|

Face-Melting SOLO!
|-12"--12-13-15-13-12----------------------------------------------------|
|--------------------15-13-12--------------------------------------------|
|----------------------------14-12-11-12-11------------------------------|
|------------------------------------------14-12-10-12-10----------------|
|--------------------------------------------------------14-12-10-12-10--|
|------------------------------------------------------------------------|

|-----------------------------------------------------------------------------|
|---------------------------------------------------9-10-9-10-9-15p13p10-12~--|
|---------------------------------------ah9~--9h10-9--------------------------|
|---------------------------9-10-12-10-9--------------------------------------|
|---------------9-10-12-10-9--------------------------------------------------|
|-15-13-12-13-15--------------------------------------------------------------|
* - Not sure about that part
|------------------------------------------------------------------------------|
|-12-13-12-10-9h10h12p10p9-----------------------------------------------------|
|-------------------------10p9p7h9p7-------------------------------------------|
|-----------------------------------10p9p7h9p7--------------------7-9-7-9-10-9-|
|----------------------------------------------8~-*-----7-8-10-8-7-------------|
|-------------------------------------------------7-8-10-----------------------|

|-0"--1"-0"--1"-0"--1"-0"-01-|-4h5p4-00004h7p40000-|-12"1213151312-------------|
|----------------------------|---------------------|--------------151312-------|
|----------------------------|-play-this-3X--------|--------------------141211-|
|----------------------------|---------------------|---------------------------|
|----------------------------|---------------------|---------------------------|
|----------------------------|---------------------|---------------------------|

 _______________________1.3._ 2._________________4._______________________
|----------------------------|------------------|-1p0005p4444~~-54578754~-|
|-9910101212-9910101212-9-13-|-10101212p9-ah13~-|-------------------------|
|-99-9-9-9-9-99-9-9-9-9-9--9-|--9-9-9-9---------|-------------------------|
|----------------------------|------------------|-------------------------|
|----------------------------|------------------|-------------------------|
|----------------------------|------------------|-------------------------|
* - divebomb
|-7h8p70000-|-7h10p700007h8p70000-|---------12-13-15-13-12---------------nh12~-|
|-----------|---------------------|-12-13-15--------------15-13-12---------*---|
|--play-4-X-|--play-this twice----|-------------------------------14-12-11-----|
|-----------|---------------------|--------------------------------------------|
|-----------|---------------------|--------------------------------------------|
|-----------|---------------------|--------------------------------------------|


1.3.__________________________  2.________________________________ 4.__
|------------------------------|----------------------------------|----|
|------------------------------|----------------------------------|----|
|------------------------------|----------------------------------|----|
|-------9---------------10-----|--------9---------------10---9-10-|-2--|
|-7-----------7-----8--------6-|--7-----------7-----8-------------|-2--|
|---0-0---0-0---0-0---0----0---|----0-0---0-0---0-0---0----0------|-0--|
    . .   . .   . .   .    .        . .   . .   . .   .    .
END

  Visit MetalTabs.com for more metal tablature

bottom separator

Contact Us | Privacy Policy | Disclaimer | Legal Notice
Copyright © 2001-2014 MetalTabs.com. All Rights Reserved.