top separator

Home

Forum

What's New

Submit a Tab

FAQ

Links

Contact Us

Link to Us

MetalTabs.com logo

Bands

0-9

A

B

C

D

E

F

G

H

I

J

K

L

M

N

O

P

Q

R

S

T

U

V

W

X

Y

Z

Search

What

Where
 

Equilibrium - "Met" Bass Tab

Plain Text Version
More Equilibrium Tabs

Hits: 4580
Rated: 2.40 out of 5 (5 votes)
Updated: 2006-03-10 03:25:36

 

By:

sendpm.gif

email.gif

Important note
This tab is available online because we obtained explicit permission from Equilibrium or their label.


#----------------------------------PLEASE NOTE---------------------------------#
#This file is the author's own work and represents their interpretation of the #
#song. You may only use this file for private study, scholarship, or research. #
#Unless specified otherwise, this is NOT an official tab from the band members.#
#------------------------------------------------------------------------------#

  Visit MetalTabs.com for more metal tablature
  
Band:  Equilibrium
Album: Turis Fratyr
Song:  Met

Copyright (c)  (Black Attakk) (2005)
Version 1.0 - (07-02-2006)

Transcribed By: crok
Email:          crok1@gmx.de


.  - palm mute           /  - slide up to
\  - slide down to       ~  - vibrato
h  - hammer on           b  - Bend
p  - pull off            Suffixes for bend
t  - tap                 f  - full bend    h - half bend
ph - pinched harmonic    q  - quarter bend t - tap bend
*  - see comment         ^  - Hold bend    r release bend
x  - Stuccatto           ~  - vibrato bend
,  - slight palm mute    () - ghost note, sustained note
"  - tremolo note        <> - Trill

Tuning B E A D G

Intro

Riff 1 x 4
|----------------------------------------|
|----------------------------------------|
|----------------------------------------|
|--5-5-5-5---------3-3-3-3---------------|
|----------6-6-6-6---------3-3-3-3-------|

Riff 2 x 1
|----------------------------------------|
|----------------3-----------------------|
|------------3-5-------------------------|
|--5-3---3-5-----------------------------|
|------6---------------------------------|

Riff 1 x 1

Riff 2 x 1

Riff 1 x 1

Riff 2 x 4

Riff 1 x 4

Riff 2 x 1

Riff 1 x 1

Riff 2 x 1

Riff 1 x 1

Riff 2 x 4

Riff 1 x 4

Bridge x 8
|----------------------------------------|
|----------------------------------------|      play the tones in the same
|----------------------------------------|      speed as guitar & drums
|--5-5-5-5---------3-3-3-3---------------|      -> they are getting faster
|----------6-6-6-6---------3-3-3-3-------|

Riff 1 x 2

Riff 2 x 2      (guitars play riff 1)

END
|----------------------|
|----------------------|
|----------------------|
|--5--5--5--5-5-5-5----|
|----------------------|

  Visit MetalTabs.com for more metal tablature

bottom separator

Contact Us | Privacy Policy | Disclaimer | Legal Notice
Copyright © 2001-2014 MetalTabs.com. All Rights Reserved.