top separator

Home

Forum

What's New

Submit a Tab

FAQ

Links

Contact Us

Link to Us

MuSpy.com

MetalTabs.com logo

Bands

0-9

A

B

C

D

E

F

G

H

I

J

K

L

M

N

O

P

Q

R

S

T

U

V

W

X

Y

Z

Search

What

Where
 

Acid Bath - "Dope Feind" Guitar Tab

Plain Text Version
More Acid Bath Tabs

Hits: 2642
Rated: 5.00 out of 5 (1 vote)
Updated: 2006-03-10 03:24:48

 

By:

sendpm.gif

email.gif

Important note
We did our best to reach Acid Bath and ask for their permission to publish this tab. Unfortunately they did not respond to our requests or we could not find a way to contact them. This tab is available online until Acid Bath tells us to take it down.


#----------------------------------PLEASE NOTE---------------------------------#
#This file is the author's own work and represents their interpretation of the #
#song. You may only use this file for private study, scholarship, or research. #
#Unless specified otherwise, this is NOT an official tab from the band members.#
#------------------------------------------------------------------------------#

  Visit MetalTabs.com for more metal tablature
  
Band:  Acid Bath
Album: when the kite string pops
Song:  dope fiend
Copyright (c)  rotten records 1994
Version 1.0 - 3/7/06

Transcribed By: michael mowl
Email: cannibal_corpse_66632@hotmail.com

you'll have to listen to the song for timing,palm muting,and pinch harm.
Tuning C
  intro/outro
|-------------------------------------------------------------------4X
|-------------------------------------------------------------------
|-------------------------------------------------------------------
|-------------------------------------------------------------------
|--0---0-0--6--0--5--5-5---0-0---5-6-5--5-6-3-----------------------
|--0---0-0--6--0--5--5-5---0-0---5-6-5--5-6-3-----------------------

    verse
|-------------------------------------------------------------------9X
|-------------------------------------------------------------------
|-------------------------------------------------------------------
|-------------------------------------------------------------------
|--0-6-0-5-0-6-0-6-0-6-5--------------------------------------------
|--0-6-0-5-0-6-0-6-0-6-5--------------------------------------------


      this part is kinda like a pre-chorus
|------------|-------------------------------------------------------
|------------|-------------------------------------------------------
|------------|-------------------------------------------------------
|------------|-------------------4-5-4---4---------------------------
|------------|----1-4-5----1-4-5-------5---5-6-4---------------------
|--0-5-8-9---|--0--------0-------------------------------------------

this is the really fast part
|-------------------------------------------------------------------
|-------------------------------------------------------------------
|-------------------------------------------------------------------
|-------------------------------------------------------------------
|----8---7--3--7--8--7-----6-0-7-0-6-7-0----------------------------
|--8---7---3--7--8--7--0---6-0-7-0-6-7-0----------------------------

  Visit MetalTabs.com for more metal tablature

bottom separator

Contact Us | Privacy Policy | Disclaimer | Legal Notice
Copyright © 2001-2014 MetalTabs.com. All Rights Reserved.