top separator

Home

Forum

FAQ

Contact Us

Link to Us

MetalTabs.com logo

Bands

0-9

A

B

C

D

E

F

G

H

I

J

K

L

M

N

O

P

Q

R

S

T

U

V

W

X

Y

Z

Amorphis - "Drowned Maid" Guitar Tab

Plain Text Version
More Amorphis Tabs

Hits: 993
Updated: 2006-03-10 03:23:17

By:


#----------------------------------PLEASE NOTE---------------------------------#
#This file is the author's own work and represents their interpretation of the #
#song. You may only use this file for private study, scholarship, or research. #
#Unless specified otherwise, this is NOT an official tab from the band members.#
#------------------------------------------------------------------------------#

  Visit MetalTabs.com for more metal tablature
  
Band:  Amorphis
Album: Tales From The Thousand Lakes
Song:  Drowned Maid

Copyright (c)  Relapse Records 1994
Version 1.0  3/5/06

Transcribed By: Undead Crusader
Email:          brendonsv@cox.net

.  - palm mute
/  - slide up
\  - slide down
~  - vibrato
h  - hammer on
p  - pull off
x  - Staccato
() - ghost note, sustained note
[~~] - pick slide

Tuning: C#/Db (tune down all strings one and a half steps)

|---------|
|---------|
|---------| Guitar 2
|---------|
|---------|
|---12\---|

Intro Riff 1
|-------------------------------------------------------------------------|
|-------7~----(7)\--------5-----7~----(7)\--------------7~----(7)\--------|
|-4-----------------4-----------------------4-----7-----------------4-----|
|-------------------------------------------------------------------------|
|-------------------------------------------------------------------------|
|-------------------------------------------------------------------------|
|                                                                         |
|-------------------------------------------------------------------------|
|-------------------------------------------------------------------------|
|-------------------------------------------------------------------------|
|-4-4-4-4-4-4-4-4-4-4-4-4-2-2-2-2-2-2-2-2-2-2-2-2-------------------------|
|-2-2-2-2-2-2-2-2-2-2-2-2-0-0-0-0-0-0-0-0-0-0-0-0-5-5-5-5-5-5-5-5-5-5-5-5-|
|-------------------------------------------------3-3-3-3-3-3-3-3-3-3-3-3-|
  . . . . . . . . . . . . . . . . . . . . . . . . . . . . . . . . . . . .
|--------------------------||       |--------------------------||
|-------7~----(7)\---------||       |-------7~----(7)\---------||
|-6-----------------2------||       |-6-----------------2------||
|--------------------------||       |--------------------------||
|--------------------------||       |--------------------------||
|--------------------------||       |--------------------------||
|    Endings 1, 2, 3       ||       |      Ending 4            ||
|--------------------------||       |--------------------------||
|--------------------------||       |--------------------------||
|--------------------------||       |--------------------------||
|--------------------------||       |-------------[~~~pick~~~]-||
|-4-4-4-4-----4-4-4-4------||       |-4-4-4-4-4-4-[~~~slide~~]-||
|-2-2-2-2-----2-2-2-2------||       |-2-2-2-2-2-2--------------||
  . . .       . . .                   . . . . .

Intro Riff 2
|-------------------------------------------------------------------------|
|-------10~--(10)\--------8-----10~--(10)\--------------10~--(10)\--------|
|-7-----------------7-----------------------7-----10----------------7-----|
|-------------------------------------------------------------------------|
|-------------------------------------------------------------------------|
|-------------------------------------------------------------------------|
|                                                                         |
|-------------------------------------------------------------------------|
|-------------------------------------------------------------------------|
|-7-----------------------3-----------------------2-----------------------|
|-7-----------------------3-----------------------2-----------------------|
|-5-----------------------1-----------------------0-----------------------|
|-------------------------------------------------------------------------|

|--------------------------||       |--------------------------||
|-------10~--(10)\---------||       |-------10~------(10)\-----||
|-9-----------------5------||       |-9------------------------||
|--------------------------||       |--------------------------||
|--------------------------||       |--------------------------||
|--------------------------||       |--------------------------||
|    Ending 1, 2, 3        ||       |      Ending 4            ||
|--------------------------||       |--------------------------||
|--------------------------||       |--------------------------||
|-5------------------------||       |-5------------------------||
|-5------------------------||       |-5------------------------||
|-3------------------------||       |-3------------------------||
|--------------------------||       |--------------------------||

Riff A
|-------------------------------------------------||
|-------------------------------------------------||
|-------------------------------------------------||
|-2----4--5-----5--4h5-2--------------------------||
|------------3------------2----3--2---------------||
|------------------------------------5--5--3--2---||
|                                                 || x6
|-------------------------------------------------||
|-------------------------------------------------||
|------------5-----------------------2------------||
|-2----------5------------5----------2------------||
|-2----------3------------5----------0------------||
|-0-----------------------3-----------------------||

Riff B
|-6----8--9-----9--8h9-6--------------------------||
|------------7------------6----7--6---------------||
|------------------------------------8--8--6--5---||
|-------------------------------------------------||
|-------------------------------------------------||
|-------------------------------------------------||
|                                                 || x4
|-------------------------------------------------||
|-------------------------------------------------||
|-3-----------------------6----------5------------||
|-3----------4------------6----------5------------||
|-1----------4------------4----------3------------||
|------------2------------------------------------||

Riff C
|----------------8--7--5-----------------8--7--5--|
|-5-----6--5h6------------5-----6--5h6------------|
|--------------7-----------------------7----------|
|-------------------------------------------------|
|-------------------------------------------------|
|-------------------------------------------------|
|                                                 |
|-------------------------------------------------|
|-------------------------------------------------|
|-------------------------------------------------|
|-2-----------------------2-----------------2-----|
|-2-----------------------2-----------------2-----|
|-0-----------------------0-----------------0-----|
                                            x
|----------------8--7--5-----------------8--7--5--||
|-5-----6--5h6------------5-----6--5h6------------||
|--------------7-----------------------7----------||
|-------------------------------------------------||
|-------------------------------------------------||
|-------------------------------------------------||
|                                                 ||
|-------------------------------------------------||
|-------------------------------------------------||
|-------------------------------------------------||
|-2-----------------2--------------------3-----5--||
|-2-----------------2-----2--2--2--2--2--3-----5--||
|-0-----------------0-----0--0--0--0--0--1--0--3--||
                    x     .  .  .  .  .     .

Riff D
|----------------8--7--5-----------------8--7--5--|
|-5-----6--5h6------------5-----6--5h6------------|
|--------------7-----------------------7----------|
|-------------------------------------------------|
|-------------------------------------------------|
|-------------------------------------------------|
|                                                 |
|-------------------------------------------------|
|-------------------------------------------------|
|-------------------------------------------------|
|-2--------------3-----5--2--------------3-----5--|
|-2-----2--2--2--3-----5--2-----2--2--2--3-----5--|
|-0-----0--0--0--1--0--3--0-----0--0--0--1--0--3--|
        .  .  .     .           .  .  .     .
|----------------8--7--5-----------------8--7--5--||
|-5-----6--5h6------------5-----6--5h6------------||
|--------------7-----------------------7----------||
|-------------------------------------------------||
|-------------------------------------------------||
|-------------------------------------------------||
|                                                 || x2
|-------------------------------------------------||
|-------------------------------------------------||
|-------------------------------------------------||
|-2--------------3-----5--2--------------3-----5--||
|-2-----2--2--2--3-----5--2-----2--2-----3-----5--||
|-0-----0--0--0--1--0--3--0-----0--0--00-1--00-3--||
        .  .  .     .           .  .  ..    ..

Repeat Riff B x4
Repeat Riff D x2

Riff E
|------------------------------------------------------------------------||
|------------------------------------------------------------------------||
|------------------------------------------------------------------------||
|-8--7--5-----5--------------------7--5--4-----4-------------------------||
|----------8-----8--6--5--3~----------------6-----6--5--3--1~----1/4~----||
|------------------------------------------------------------------------||
|                                                                        || x2
|------------------------------------------------------------------------||
|------------------------------------------------------------------------||
|-------------------------8--------7-------------------------------------||
|-5-----------------------8--------7-------------------------------------||
|-5-----------------------6--------5-------------------------------4~----||
|-3--------------------------------------------------------6~------------||

Riff F
|----------------------------------------------------------------------------|
|----------------------------------------------------------------------------|
|----------------------------------------------------------------------------|
|-8--7--5-----5--------------------7--5--4-----4-----------------------------|
|----------8-----8--6--5--3~----------------6-----6--5--3--1~-----1/4~-------|
|----------------------------------------------------------------------------|
|                                                                            |
|----------------------------------------------------------------------------|
|----------------------------------------------------------------------------|
|-------------------------8--------7--------------------------------6--------|
|-5-----------------------8--------7-----------------------8--------6--------|
|-5-----------------------6--------5--------------5--5--5--8--------4--4--4--|
|-3--------------3--3--3-----------------------------------6--6--6-----------|
                 .  .  .                          .  .  .     .  .     .  .
|---------------------------------------------------------------------------||
|---------------------------------------------------------------------------||
|---------------------------------------------------------------------------||
|-8--7--5-----5--------------------7--5--4-----4----------------------[~~~~]||
|----------8-----8--6--5--3~----------------6-----6--5--3--1~-----1/4-[~~~~]||
|---------------------------------------------------------------------------||
|                                                                           ||
|---------------------------------------------------------------------------||
|---------------------------------------------------------------------------||
|-------------------------8--------7--------------------------------6-------||
|-5-----------------------8--------7-----------------------8--------6-------||
|-5-----------------------6--------5--------------5--5--5--8--------4--/13\-||
|-3--------------3--3--3-----------------------------------6--6--6----------||
                 .  .  .                          .  .  .     .  .

Riff G
|-----------------------------------------------------------------------------|
|-----------------------------------------------------------------------------|
|-------------3------------------------------------------------3h4p3----------|
|-2-----5--4--------5--4--2-------2-------1-----2--4-4/5---4-5-------5-4-2--1-|
|------------------------------5-----2----------------------------------------|
|-----------------------------------------------------------------------------|
|                                                                             |
|-----------------------------------------------------------------------------|
|-----------------------------------------------------------------------------|
|-------------------------5----5----------4-----------------------------------|
|-2-----------------------5----5----------4-----------------------5-----8-----|
|-2-----------------------3----3----------2-----2--2--2--2--2--22-5-----8-----|
|-0--0--0--0--0--0--0--0------------------------------------------3-----6-----|
     .  .  .  .  .  .  .                        .  .  .  .  .  ..
|-----------------------------------------------------------------------------|
|-----------------------------------------------------------------------------|
|-------------3------------------------------------------------3h4p3----------|
|-2-----5--4--------5--4--2-------2-------1-----2--4-4/5---4-5-------5-4-2--1-|
|------------------------------5-----2----------------------------------------|
|-----------------------------------------------------------------------------|
|                                                                             |
|-----------------------------------------------------------------------------|
|-----------------------------------------------------------------------------|
|-------------------------5----5----------4-----------------------------------|
|-2-----------------------5----5----------4-----------------------5-----8-----|
|-2-----------------------3----3----------2-----2--2--2--2--2--22-5-----8-----|
|-0--0--0--0--0--0--0--0------------------------------------------3-----6-----|
    .  .  .  .  .  .  .                        .  .  .  .  .  ..
|----------------------------------------------------------------------------|
|----------------------------------------------------------------------------|
|-------------3-----------------------------------------------3h4p3----------|
|-2-----5--4-------5--4--2-------2-------1-----2--4-4/5---4-5-------5-4-2--1-|
|-----------------------------5-----2----------------------------------------|
|----------------------------------------------------------------------------|
|                                                                            |
|----------------------------------------------------------------------------|
|----------------------------------------------------------------------------|
|------------------------5----5----------4-----------------------------------|
|-2----------------------5----5----------4-----------------------5-----8-----|
|-2----------------------3----3----------2-----2--2--2--2--2--22-5-----8-----|
|-0--0--0--0--000--0--00-----------------------------------------3-----6-----|
     .  .  .  ...  .  ..                       .  .  .  .  .  ..
|----------------------------------------------------------------------------|
|----------------------------------------------------------------------------|
|-------------3-----------------------------------------------3h4p3----------|
|-2-----5--4-------5--4--2-------2-------1-----2--4-4/5---4-5-------5-4-2--1-|
|-----------------------------5-----2----------------------------------------|
|----------------------------------------------------------------------------|
|                                                                            |
|-----------------------------------------------------------------------------||
|-----------------------------------------------------------------------------||
|------------------------5----5----------4--------4--------4------------------||
|-2----------------------5----5----------4--------4--------4------5----8-3--3-||
|-2----------------------3----3----------2---2222-2---2222-2---22-5----8-3--3-||
|-0--0--0--0--000--0--00------------------------------------------3----6-1--1-||
     .  .  .  ...  .  ..                     ....     ....     ..        x  x

Repeat Riff D x2
Repeat Riff B x6

Ending
|-6~----(6)\------------------------||
|-----------------------------------||
|-----------------------------------||
|-----------------------------------||
|-----------------------------------||
|-----------------------------------||
|                                   ||
|-----------------------------------||
|-----------------------------------||
|-3---------------------------------||
|-3-------------3-----5--2----------||
|-1-------------3-----5--2----------||
|------------0--1--0--3--0----------||
             .     .     x

  Visit MetalTabs.com for more metal tablature

bottom separator

Contact Us | Privacy Policy | Disclaimer
Copyright © 2001-2014 MetalTabs.com. All Rights Reserved.