top separator

Home

Forum

What's New

Submit a Tab

FAQ

Links

Contact Us

Link to Us

MuSpy.com

MetalTabs.com logo

Bands

0-9

A

B

C

D

E

F

G

H

I

J

K

L

M

N

O

P

Q

R

S

T

U

V

W

X

Y

Z

Search

What

Where
 

Lord Gore - "Lord Gore" Guitar Tab

Plain Text Version
More Lord Gore Tabs

Hits: 2037
Rated: 3.86 out of 5 (7 votes)
Updated: 2006-03-10 03:22:15

 

By:

grinder

sendpm.gif

email.gif

Important note
This tab is available online because we obtained explicit permission from Lord Gore or their label.


#----------------------------------PLEASE NOTE---------------------------------#
#This file is the author's own work and represents their interpretation of the #
#song. You may only use this file for private study, scholarship, or research. #
#Unless specified otherwise, this is NOT an official tab from the band members.#
#------------------------------------------------------------------------------#

  Visit MetalTabs.com for more metal tablature
  
Band:  Lord Gore
Album: The Autophagus Orgy
Song:  Lord Gore


Transcribed By: grinder
Email:          grinder@devourment.net


.  - palm mute
*  - pinched harmonic

Tuning E A D G B E

|-------------------------------------------------------------------|
|-------------------------------------------------------------------|
|-------------------------------------------------------------------|
|-------------------------------------------------------------------|
|-------------------------------------------------------------------|
|-1-1-2-2-1-1-0-0-1-1-2-2-1-1-0-0-1-1-2-2-1-1-0-0-5-5-5-5-4-4-4-4---|(10x)
  . . . . . . . . . . . . . . . . . . . . . . . . . . . . . . . .
|-------------------------------------------------------------------|
|-------------------------------------------------------------------|
|-------------------------------------------------------------------|
|-------------------------------------------------------------------|
|-6*-3-6*-3-4-5--6-6-6-6-5-5-5-5------------------------------------|(4x)
|----1----1-2-3--4-4-4-4-3-3-3-3------------------------------------|(4x)

|-------------------------------------------------------------------|
|-------------------------------------------------------------------|
|-------------------------------------------------------------------|
|-------------------------------------------------------------------|
|-3--2-2-2-2-3-2--3--2-5-4------------------------------------------|(5x)
|-1--0-0-0-0-1-0--1--0-3-2------------------------------------------|(5x)

|-------------------------------------------------------------------|
|-------------------------------------------------------------------|
|-------------------------------------------------------------------|
|-------------------------------------------------------------------|
|-3--2-2-2-2-3-2--3--2-5-5-5-5-4-4-4-4------------------------------|
|-1--0-0-0-0-1-0--1--0-3-3-3-3-2-2-2-2------------------------------|
                       . . . . . . . .
|-------------------------------------------------------------------|
|-------------------------------------------------------------------|
|-------------------------------------------------------------------|
|-------------------------------------------------------------------|
|-3--2-2-2-2-3-2--3--2-5-4------------------------------------------|
|-1--0-0-0-0-1-0--1--0-3-2------------------------------------------|

|-------------------------------------------------------------------|
|-------------------------------------------------------------------|
|-------------------------------------------------------------------|
|-------------------------------------------------------------------|
|-3--2-2-2-2-3-2--3--2-5-5-5-5-4-4-4-4------------------------------|
|-1--0-0-0-0-1-0--1--0-3-3-3-3-2-2-2-2------------------------------|
                       . . . . . . . .
|-------------------------------------------------------------------|
|-------------------------------------------------------------------|
|-------------------------------------------------------------------|
|-------------------------------------------------------------------|
|-6*-3-6*-3-4-5--6-6-6-6-5-5-5-5------------------------------------|(4x)
|----1----1-2-3--4-4-4-4-3-3-3-3------------------------------------|(4x)

comments or corrections to: grinder@devourment.net

  Visit MetalTabs.com for more metal tablature

bottom separator

Contact Us | Privacy Policy | Disclaimer | Legal Notice
Copyright © 2001-2014 MetalTabs.com. All Rights Reserved.