#----------------------------------PLEASE NOTE---------------------------------#
#This file is the author's own work and represents their interpretation of the #
#song. You may only use this file for private study, scholarship, or research. #
#Unless specified otherwise, this is NOT an official tab from the band members.#
#------------------------------------------------------------------------------#

  Visit MetalTabs.com for more metal tablature
  
Band: Bathory
Album: Bathory
Song: In Conspiracy with Satan
By: Evil blackmetal_norway@hotmail.com


Riff A main riff
|-----------------------------------|
|-----------------------------------|
|-----------------------------------|
|--4-4-2-4-4-2-4-4ó2-4-4-2-4-4-542--|
|--2-2-0-2-2-0-2-2-0-2-2-0-2-2-320--|
|-----------------------------------|


Riff B bridge
|----------------------------------|
|----------------------------------|
|----------------------------------|
|----------------------------------|
|-44444444-5-4444444-7-------------|
|-22222222-3-2222222-5-------------|

Riff B (cont.)
|----------------------------------|
|----------------------------------|
|----------------------------------|
|----------------------------------|
|-44444444-5-5-5-------------------|
|-22222222-3-3-3-------------------|


Riff C chorus play this many times,donít know how many.
|----------------------------------|
|----------------------------------|
|----------------------------------|
|-444444444444444444---------------|
|-222222222222222222---------------|
|----------------------------------|

Riff D under solo, no solo.
|----------------------------------|
|----------------------------------|
|----------------------------------|
|----------------------------------|
|-444444444444444444-5-------------|
|-222222222222222222-3-------------|

  Visit MetalTabs.com for more metal tablature