#----------------------------------PLEASE NOTE---------------------------------#
#This file is the author's own work and represents their interpretation of the #
#song. You may only use this file for private study, scholarship, or research. #
#Unless specified otherwise, this is NOT an official tab from the band members.#
#------------------------------------------------------------------------------#

  Visit MetalTabs.com for more metal tablature
  
Band: Nargaroth
Album: Black Metal Ist Krieg
Song: Possessed By Black Fucking Metal

Done: Evil blackmetal_norway@hotmail.com

Riff a
|----------------------------------|
|----------------------------------|
|----------------------------------|
|----------------------------------|
|-3-2-----2-2-2-2-2-2-2-2----------|
|-----3-2-0-0-0-0-0-0-0-0----------|

Riff a cont.
|----------------------------------|
|----------------------------------|
|----------------------------------|
|----------------------------------|
|-2-2-2-2-2-2-2-2------------------|
|-0-0-0-0-0-0-0-0------------------|

Cont.
|----------------------------------|
|----------------------------------|
|----------------------------------|
|----------------------------------|
|-3-2-----2-2-2-2-2-2-2-2----------|
|-----3-2-0-0-0-0-0-0-0-0----------|
Cont.
|----------------------------------|
|----------------------------------|
|----------------------------------|
|----------------------------------|
|--5555----------------------------|
|--3333----------------------------|

Riff b
|----------------------------------|
|----------------------------------|
|----------------------------------|
|----------------------------------|
|-3-2-----4-4-4-4-4-4-4-4----------|
|-----3-2-2-2-2-2-2-2-2-2----------|

Riff b cont.
|----------------------------------|
|----------------------------------|
|----------------------------------|
|----------------------------------|
|-3-2-2-2-2-2-2-2-2-2------5555----|
|-----0-0-0-0-0-0-0-0------3333----|

Let ring.
|----------------------------------|
|----------------------------------|
|----------------------------------|
|----------------------------------|
|--2-------------------------------|
|--0-------------------------------|

Riff c
|----------------------------------|
|----------------------------------|
|----------------------------------|
|--------444444333333--------------|
|-2222222222222111111--------------|
|-0000000--------------------------|

Riff d
|----------------------------------|
|----------------------------------|
|----------------------------------|
|-222222255555556666655555---------|
|-000000033333334444433333---------|
|----------------------------------|

Riff e
|----------------------------------|
|----------------------------------|
|----------------------------------|
|---------------------------------|
|--------------2-2-2-2-2-2-2-2-----|
|--12-12-12----0-0-0-0-0-0-0-0-----|

Cont.
|----------------------------------|
|----------------------------------|
|----------------------------------|
|----------------------------------|
|--5--5--5--5----------------------|
|--3--3--3--3----------------------|

  Visit MetalTabs.com for more metal tablature