top separator

Home

Forum

FAQ

Contact Us

Link to Us

MetalTabs.com logo

Bands

0-9

A

B

C

D

E

F

G

H

I

J

K

L

M

N

O

P

Q

R

S

T

U

V

W

X

Y

Z

Burzum - "Black spell of Destruction" Guitar Tab

Plain Text Version
More Burzum Tabs

Hits: 8239
Rated: 4.07 out of 5 (14 votes)
Updated: 2006-03-10 03:07:44

By:

Evil


#----------------------------------PLEASE NOTE---------------------------------#
#This file is the author's own work and represents their interpretation of the #
#song. You may only use this file for private study, scholarship, or research. #
#Unless specified otherwise, this is NOT an official tab from the band members.#
#------------------------------------------------------------------------------#

  Visit MetalTabs.com for more metal tablature
  
Band: Burzum
Album: Burzum
Song: Black Spell Of Destruction
Tab done by: Evil blackmetal_norway@hotmail.com

Riff A
|-----------------------------------|
|-----------------------------------|
|-----------------------------------|
|-----------------5-----------------|
|--2---2-----5---5-5----2--2--5--4--|
|-0---0---0-3---3------0--0--3--2---|


Riff B beginning
|---------------------------------------|
|--------------0-------0----------------|
|----4---4---4------4----4--------------|
|--2---2---2------2---------------------|
|---------------------------------------|
|---------------------------------------|


Riff b cont.
|---------------------------------------|
|-----0-------0-------------------------|
|---3---3---3---3-----------------------|
|-1-------1-----------------------------|
|---------------------------------------|
|---------------------------------------|

Riff b cont.
|---------------------------------------|
|-----0-------0-------------------------|
|---4---4---4---4-----------------------|
|-2-------2-----------------------------|
|---------------------------------------|
|---------------------------------------|


Riff b cont.

|---------------------------------------|
|-----0-------0-------------------------|
|---3---3---3---3-----------------------|
|-1-------1-----------------------------|
|---------------------------------------|
|---------------------------------------|

Riff c
|---------------------------------------|
|---------------------------------------|
|---------------------------------------|
|---------------------------------------|
|-2-222-222-2-4-6-666-----------7-------|
|-0-000-000-0-2-4-444-----------5-------|
                        Second time end

Riff E
|--------------------------------------|
|--------------------------------------|
|--------------------------------------|
|--2---5--4--6-5----------------------|
|--------------------------------------|
|--------------------------------------|

Riff E cont.

|--------------------------------------|
|--------------------------------------|
|--------------------------------------|
|--3---5--4---------------------------|
|-------------6-5----------------------|
|--------------------------------------|

End let ring.

|--------------------------------------|
|--------------------------------------|
|--------------------------------------|
|--2----------------------------------|
|--------------------------------------|
|--------------------------------------|

  Visit MetalTabs.com for more metal tablature

bottom separator

Contact Us | Privacy Policy | Disclaimer
Copyright © 2001-2014 MetalTabs.com. All Rights Reserved.