top separator

Home

Forum

What's New

Submit a Tab

FAQ

Links

Contact Us

Link to Us

MuSpy.com

MetalTabs.com logo

Bands

0-9

A

B

C

D

E

F

G

H

I

J

K

L

M

N

O

P

Q

R

S

T

U

V

W

X

Y

Z

Search

What

Where
 

Dying Fetus - "Forced Elimination" Guitar Tab

Plain Text Version
More Dying Fetus Tabs

Hits: 3375
Rated: 5.00 out of 5 (1 vote)
Updated: 2006-03-10 03:05:48

 

By:

Yura

sendpm.gif

email.gif

Important note
This tab is available online because we obtained explicit permission from Dying Fetus or their label.


#----------------------------------PLEASE NOTE---------------------------------#
#This file is the author's own work and represents their interpretation of the #
#song. You may only use this file for private study, scholarship, or research. #
#Unless specified otherwise, this is NOT an official tab from the band members.#
#------------------------------------------------------------------------------#

  Visit MetalTabs.com for more metal tablature
  
Song : FORCED ELIMINATION
Band : DYING FETUS
ALBUM : STOP AT NOTHING
Copyright Relapse Records 2003

Version 2.0 (February'06)
Transcribed by : Yura Kowalchuk
       contact : yura_kowalchuk@mail.ru
URL: [www.blood-scrapes.nm.ru]

::TABULATURE LEGEND::
 " - tremolo             h - hammer on
 ~ - vibrato             \ - slide down
 p - pull off            / - slide down
 tr - trill              ^ - pinch harmonics
 = - sustained note      b - bend string
 p.m. - palm muting      t - tapping

Tuning is C# [C#,F#,B,e,g#,c#]

[Part 1 (x3)]
|----------------------------------------------------------------|
|----------------------------------------------------------------|
|----------------------------------------------------------------|
|----------------------------------------------------------------|
|-2-2-4---8---5---4-5-4------------5-4----------5-4----------5-4-|
|-0-0-2---6---3---2-3-2---11002200-3-2-11002200-3-2-11002200-3-2-|
  . .             . .     ........ . . ........ . . ........ . .

[Outro 1]
|---------------------|
|---------------------|
|---------------------|
|---------------------|
|-2-2-4---8---5---4-5-|
|-0-0-2---6---3---2-3-|
  . .             . .

[Part 2]
|----------------------------------------------|-
|----------------------------------------------|-
|----------------------------------------------|-
|------------------------------------------5-4-|-
|----------5-4----------6-5-33---22---11---3-2-|-
|-11002200-3-2-22003300-4-3---4----3----2------|-
  ........ . . ........ . . ...  ...  ...  . .

-|----------------------------------------------|
-|----------------------------------------------|
-|----------------------------------------------|
-|------------------------------------------3-6-|
-|----------5-4----------6-5-33---22---11---1-4-|
-|-11002200-3-2-22003300-4-3---4----3----2------|
   ........ . . ........ . . ...  ...  ...  . .

[Outro 2]
|--------------------------------------|
|--------------------------------------|
|--------------------------------------|
|--------------------------------------|
|-33---22---11---4-3--33--22--11---5-4-|
|---4----3----2--2-1----4---3---2--3-2-|
  ...  ...  ...  . .  ... ... ...  . .

[PART 2] [PART 2 /1 bar only/] [OUTRO 2]

[Part 3 (x2)]
|-------------------------------------------------------|
|-------------------------------------------------------|
|-------------------------------------------7h10p7------|
|------------2h5p2-------------------7h10p7-------------|
|-------------------------------------------------------|
|-2h3p2-0000-------00000-3h4p3-00000---------------[x3]-|

----------------------------------|
----------------------------------|
----------------------------------|
----------------33333333----------|
----------------------------------|
-444444444441111--------444444444-|

[Part 4 (x4)]
|----------------------------------|-----------------------------|
|----------------------------------|-----------------------------|
|----------------------------------|-----------------------------|
|----------------------------------|-----------------------------|
|---------5555--------5555---------|-6-6-6-6--6--6-7-7-7-7--7--7-|
|-00023222----33332222----33332222-|-5-5-5-5--5--5-6-6-6-6--6--6-|

[Part 5(x2)]
|----------------------------------|----------------------------------|-
|----------------------------------|----------------------------------|-
|----------------------------------|----------------------------------|-
|----------------------------------|-----------------33333333---------|-
|-----3333--------------------3333-|----------------------------------|-
|-1111----44443333666644443333-----|-4444444444433333--------44443333-|-

-|----------------------------------|----------------------------------|
-|----------------------------------|----------------------------------|
-|----------------------------------|----------------------------------|
-|----------------------------------|----------------------------------|
-|-----3333--------------------3333-|------------33333-----------------|
-|-1111----44443333666644443333-----|-44444444444-----3333333344443333-|

[PART 4 (x4)]

[Outro 3]
|----------------------------------|
|----------------------------------|
|----------------------------------|
|----------------------------------|
|-2222----2222----4-3--------------|
|-0000----0000----2-1-002333222111-|
  ....    ....    . . ............

[Part 6 /under solo/ (x4)]
|------------------------------------------------------------------------------|
|------------------------------------------------------------------------------|
|------------------------------------------------------------------------------|
|-----------------------------------------------------3h6p3------------3h6p3h6-|
|-2---3---5---5-3-------3/5---3---2---3---5---5-3---5-------5---3h4p3h4--------|
|-0-0-1-0-3-0-3-1-0-000-1/3-0-1-0-0-0-1-0-3-0-3-1-7-----------7----------------|
    .   .   .     . ...     .   .   .   .   .

[OUTRO (x3)]

...continue
|--------------------------|
|--------------------------|
|--------------------------|
|--------------------------|
|-2222----2222----4-3-6----|
|-0000----0000----2-1-4----|
  ....    ....    . .

[Part 7 (x2)]
|-------------------------[x3]-|-----------------------------------|
|------------------------------|-----------------------------------|
|------------------------------|-----------------------------------|
|------------------------------|-----------------------------------|
|-3-222-444-333-222-333-222-6--|-3-222-444-333-222-6-6-6-6-7-7-7-7-|
|-1-000-222-111-000-111-000-4--|-1-000-222-111-000-4-4-4-4-5-5-5-5-|
    ... ... ... ... ... ...        ... ... ... ...

[PART 3 (x8)]

[Ending]
|-------------------------------------------------------|-
|-------------------------------------------------------|-
|-------------------------------------------7h10p7------|-
|------------2h5p2-------------------7h10p7-------------|-
|-------------------------------------------------------|-
|-2h3p2-0000-------00000-3h4p3-00000---------------[x8]-|-

-|----------------------------------------------|
-|----------------------------------------------|
-|----------------------------------------------|
-|------------2h5p2------33333333---------------|
-|----------------------------------------2-----|
-|-2h3p2-0000-------00000--------44444444-0-----|
                                          .

END OF SONG

  Visit MetalTabs.com for more metal tablature

bottom separator

Contact Us | Privacy Policy | Disclaimer | Legal Notice
Copyright © 2001-2014 MetalTabs.com. All Rights Reserved.