top separator

Home

Forum

What's New

Submit a Tab

FAQ

Links

Contact Us

Link to Us

MuSpy.com

MetalTabs.com logo

Bands

0-9

A

B

C

D

E

F

G

H

I

J

K

L

M

N

O

P

Q

R

S

T

U

V

W

X

Y

Z

Search

What

Where
 

Falconer - "Royal Gallery" Guitar Tab

Plain Text Version
More Falconer Tabs

Hits: 2638
Rated: 5.00 out of 5 (2 votes)
Updated: 2006-03-10 03:05:16

 

By:

Daniil

sendpm.gif

email.gif

Important note
This tab is available online because we obtained explicit permission from Falconer or their label.


#----------------------------------PLEASE NOTE---------------------------------#
#This file is the author's own work and represents their interpretation of the #
#song. You may only use this file for private study, scholarship, or research. #
#Unless specified otherwise, this is NOT an official tab from the band members.#
#------------------------------------------------------------------------------#

  Visit MetalTabs.com for more metal tablature
  
FALCONER-Royal Galley
Falconer-2001
Copyright Metal Blade Records
Transcribed by Daniil Laletin
e-mail: dlaletin@mail.ru
version 1.0 February 2006

All corrections are welcome.

 " - tremolo
 / - slide down
 \ - slide up
 . - palm mute
 ~ - long sound
 x - rest
 p - pull off
 h - hammer on
 tr - trill
 () - ghost note, sustained note
 * - artificial harmonics
 b - bend

 Tuning from low to high: D G C F A D

================================

 Riff 1a
|--------------------------------------------------------------------------|
|--------------------------5-6-5----------6----5-------------6-6h8p6p5\3---|
|------5------4------2-5-7-------7-5------5----5------7------7-----------5-|
|------7------5------3---------------0000---00---0000-7-0000---------------|g1
|-0000---0000---0000-------------------------------------------------------|
|--------------------------------------------------------------------------|
|
|-----------------------------------------5------------------5-------------|
|--------------------------5-6-5----------6----8------6------6-6h8p6p5\3---|
|------5------4------2-5-7-------7-5-----------9------7------------------5-|
|------7------5------3---------------0000---00---0000---0000---------------|g2
|-0000---0000---0000-------------------------------------------------------|
|--------------------------------------------------------------------------|

|----------------------------------------------------------------------------|
|----------------------------------------------------------------------1h3h5-|
|------5------4------5-----4-7-5-4-----4-5---2-4---1-------1h2h4-1h2h4-------|
|------7------5------7---6---------6-2-----2-----2---0h2h3-------------------|g1
|-0000---0000---0000---7-----------------------------------------------------|
|----------------------------------------------------------------------------|
|
|----------------------------------------------------------------------------|
|----------------------------------------------------------------------1h3h5-|
|------5------4------5-----4-7-5-4-----4-5---2-4---1-------1h2h4-1h2h4-------|
|------7------5------7---6---------6-2-----2-----2---0h2h3-------------------|g2
|-0000---0000---0000---7-----------------------------------------------------|
|----------------------------------------------------------------------------|


 Riff 1b
|--------------------------3-5-3-------------------------------------------|
|----------------------5-6-------6-5------6----5-------------6-------------|
|------5------4------2--------------------5----5------7------7-7h9p7p5\4\2-|
|------7------5------3---------------0000---00---0000-7-0000---------------|g1
|-0000---0000---0000-------------------------------------------------------|
|--------------------------------------------------------------------------|
|
|-----------------------------------------5------------------5-------------|
|--------------------------5-6-5----------6----8------6------6-6h8p6p5\3---|
|------5------4------2-5-7-------7-5-----------9------7------------------5-|
|------7------5------3---------------0000---00---0000---0000---------------|g2
|-0000---0000---0000-------------------------------------------------------|
|--------------------------------------------------------------------------|

|----------------------------------------------------------------------------|
|--------------------------3-6-5-3-------------------------------------1h3h5-|
|------5------4------5---4---------4---4-5---2-4---1-------1h2h4-1h2h4-------|
|------7------5------7-6-------------2-----2-----2---0h2h3-------------------|g1
|-0000---0000---0000---------------------------------------------------------|
|----------------------------------------------------------------------------|
|
|----------------------------------------------------------------------------|
|----------------------------------------------------------------------1h3h5-|
|------5------4------5-----4-7-5-4-----4-5---2-4---1-------1h2h4-1h2h4-------|
|------7------5------7---6---------6-2-----2-----2---0h2h3-------------------|g2
|-0000---0000---0000---7-----------------------------------------------------|
|----------------------------------------------------------------------------|



 Riff 2
|--------------------------------------------------------------|
|--------------------------------------------------------------|
|------------------------------2-4-5------5------7-----7-4-----|
|-2----------------2-----2---2-0-2-3-3333-3-3333-55555-5-2-5-4-|gtr 1
|-0-0000-0000-0000-00000-000-0-.-.-----------------------.-3-2-|
|----------------------------.-----------------------------.-.-|
|
|--------------------------------------------------------------|
|--------------------------------------------------------------|
|------------------------------2-4-5------5------7-----7-4-----|
|-2----------------2-----2---2-0-2-3-3333-3-3333-55555-5-2-5-4-|gtr 2
|-0-0000-0000-0000-00000-000-0-.-.-----------------------.-3-2-|
|----------------------------.-----------------------------.-.-|

|----------------------------------------------------------|
|----------------------------------------------------------|
|------------------------------------------------5-x-2-----|
|-2----------------2-----2-----2-4-5------5------3-x-0-----|gtr 1
|-0-0000-0000-0000-00000-000-5-0-2-3-3333-3-3333-------5---|
|----------------------------3-.-.---------------------3---|
|                            .
|----------------------------------------------------------|
|----------------------------------------------------------|
|------------------------------------------------5-x-2-----|
|-2----------------2-----2-----2-4-5------5------3-x-0-----|gtr 2
|-0-0000-0000-0000-00000-000-5-0-2-3-3333-3-3333-------5---|
|----------------------------3-.-.---------------------3---|


 Riff 3
|-------------------------------|
|-------------------------------|
|-----------5-------------------|
|-3----5----5---5-4-2-5----\----|gtr 1
|-3----5----3---3-2-0-5----\----|
|-1----3--------.-.-.-3----\----|
|
|-------------------------------|
|-------------------------------|
|-----------5-------------------|
|-3----5----5---5-4-2-5----\----|gtr 2
|-3----5----3---3-2-0-5----\----|
|-1----3--------.-.-.-3----\----|

|----------------------------------------------------------------|
|----------------------------------------------------------------|
|-10---------------7---------10-9-7-9~~-------------7-10-9-7-9~--|
|--------10-----7~---555-9/----------------6-7-9-10--------------|gtr 1
|----888----888--------------------------7-----------------------|
|----------------------------------------------------------------|
|
|----------------------------------------------------------------|
|----------------------------------------------------------------|
|-10---------------7---------10-9-7-9~~-------------7-10-9-7-9~--|
|--------10-----7~---555-9/----------------6-7-9-10--------------|gtr 2
|----888----888--------------------------7-----------------------|
|----------------------------------------------------------------|


 Riff 4
|----------------------------------------------------------|
|----------------------------------------------------------|
|-----------------------------------------7-777-7--3-5-----|
|-7-77-7-77-7-77-7-77-5-55-5-55-5-55-5-55-7-777-7--3-5-3-5-|gtr 1
|-7-77-7-77-7-77-7-77-5-55-5-55-5-55-5-55-5-555-5--1-3-3-5-|
|-5-55-5-55-5-55-5-55-3-33-3-33-3-33-3-33--------------1-3-|

|----------------------------------------------------------|
|----------------------------------------------------------|
|-----------------------------------------7-777-7--3-5-----|
|-7-77-7-77-7-77-7-77-5-55-5-55-5-55-5-55-7-777-7--3-5-3-5-|gtr 2
|-7-77-7-77-7-77-7-77-5-55-5-55-5-55-5-55-5-555-5--1-3-3-5-|
|-5-55-5-55-5-55-5-55-3-33-3-33-3-33-3-33--------------1-3-|

|----------------------------------------------------------------|
|----------------------------------------------------------------|
|-----------------------------------------10-101010-10--7-5---12-|
|-7-77-7-77-7-77-7-77-5-55-5-55-5-55-5-55-10-101010-10--7-5-5-12-|gtr 1
|-7-77-7-77-7-77-7-77-5-55-5-55-5-55-5-55--8--8-8-8--8--5-3-5-10-|
|-5-55-5-55-5-55-5-55-3-33-3-33-3-33-3-33-------------------3----|
|
|----------------------------------------------------------------|
|----------------------------------------------------------------|
|-----------------------------------------10-101010-10--7-5---12-|
|-7-77-7-77-7-77-7-77-5-55-5-55-5-55-5-55-10-101010-10--7-5-5-12-|gtr 2
|-7-77-7-77-7-77-7-77-5-55-5-55-5-55-5-55--8--8-8-8--8--5-3-5-10-|
|-5-55-5-55-5-55-5-55-3-33-3-33-3-33-3-33-------------------3----|


 Fill 1
|----------------------------------------------------|
|----------------------------------------------------|
|----------------------------------9---------------9-|
|-7-5-7----5-3-5----7-5-7----3--5--9----6-9-10-9-7---|gtr 1
|-7-5-7----5-3-5----7-5-7----3--5--7--7--------------|
|-5-3-5----3-1-3----5-3-5----1--3--------------------|
|
|----------------------------------------------------|
|----------------------------------------------------|
|----------------------------------9---------------9-|
|-7-5-7----5-3-5----7-5-7----3--5--9----6-9-10-9-7---|gtr 2
|-7-5-7----5-3-5----7-5-7----3--5--7--7--------------|
|-5-3-5----3-1-3----5-3-5----1--3--------------------|



 Riff 5
|---------------------------------------------|
|---------------------------------------------|
|---------------------------------------------|
|-7----5-7--10-7-5----3-5--5-9-7----5-7--10-7-|gtr 1
|-7----5-7---8-5-5----3-5--3-7-7----5-7---8-5-|
|-5-55-3-5-------3-33-1-3------5-55-3-5-------|
|   ..             ..            ..
|---------------------------------------------|
|---------------------------------------------|
|---------------------------------------------|
|-7----5-7--10-7-5----3-5--5-9-7----5-7--10-7-|gtr 2
|-7----5-7---8-5-5----3-5--3-7-7----5-7---8-5-|
|-5-55-3-5-------3-33-1-3------5-55-3-5-------|
    ..             ..            ..
|---------------------------------------|
|---------------------------------------|
|-------5----------7------------------9-|
|-------7----------9--9----6-9-10-9-7---|gtr 1
|-88888-8--101010-10--7--7--------------|
|-.....-----.-.-.-----------------------|
|
|---------------------------------------|
|---------------------------------------|
|-------5----------7------------------9-|
|-------7----------9--9----6-9-10-9-7---|gtr 2
|-88888-8--101010-10--7--7--------------|
|-.....-----.-.-.-----------------------|




 Riff 6
|-----------------------------------------------------10~-|
|---------10--------6-10--------------10-----------10-----|
|-------9----9----7--------4-7------9----9----7-10--------|
|-/7-10--------10--------5-----7-10--------10-------------|gtr 1
|---------------------------------------------------------|
|---------------------------------------------------------|
|
|---------------------------------------------------------|
|-----------------6-666-----------------------6--666--6---|
|-----------------7-777-----------------------7--777--7---|
|-7--777--7-------7-777-5------7--777--7------7--777--7---|gtr 2
|-7--777--7-------5-555-5------7--777--7------5--555--5---|
|-5--555--5-------------3------5--555--5------------------|

|-------8-8h10p8\7-5-----------------------7-12~--|
|-----8--------------8-5~--5-3-5-6-5-3-5-9--------|
|-5-9---------------------------------------------|
|-------------------------------------------------|gtr 1
|-------------------------------------------------|
|-------------------------------------------------|
|
|-------------------------------------------------|
|-------------------------------------------------|
|-5-----------------------------------------------|
|-5---------------5--------9--9999-9---9----------|gtr 2
|-3---------------2--------7--7777-7---7----------|
|-----------------3-------------------------------|

|-----------------------/8~--7-8-10-8-7-8~--|
|-------------------------------------------|
|-/5~--4-5-7-5-4-5p4------------------------|
|--------------------7----------------------|gtr 1
|-------------------------------------------|
|-------------------------------------------|
|
|-------------------------------------------|
|------------6-666----------------6--666--6-|
|------------7-777----------------7--777--7-|
|-7--777--7--7-777-5-----7--777-7-7--777--7-|gtr 2
|-7--777--7--5-555-5-----7--777-7-5--555--5-|
|-5--555--5--------3-----5--555-5-----------|


|-------8-8h10p8\7-5-----------------------7-12~--|
|-----8--------------8-5~--5-3-5-6-5-3-5-9--------|
|-5-9---------------------------------------------|
|-------------------------------------------------|gtr 1
|-------------------------------------------------|
|-------------------------------------------------|
|
|-------------------------------------------------|
|-------------------------------------------------|
|-5-----------------------------------------------|
|-5---------------5--------9--9999-9---9----------|gtr 2
|-3---------------2--------7--7777-7---7----------|
|-----------------3-------------------------------|


|--------------------------------------------|
|--------------------------------------------|
|-1010101010--9999999--7777777--5-4-2--------|
|-1010101010--9999999--7777777--5-4-2--5--7--|gtr 1
|--8-8-8-8-8--7777777--5555555--3-2-0--5--7--|
|--------------------------------------3--5--|
|
|--------------------------------------------|
|--------------------------------------------|
|-1010101010--9999999--7777777--5-4-2--------|
|-1010101010--9999999--7777777--5-4-2--5--7--|gtr 2
|--8-8-8-8-8--7777777--5555555--3-2-0--5--7--|
|--------------------------------------3--5--|


 Ending riff
|--------------------------|----------|
|--------------------------|----------|
|--------------------------|------9---|
|-7-9-10-9-7--9-7-5--7-5-3-|-2----9-2-|gtr 1
|-7-9-10-9-7--9-7-5--7-5-3-|-2----7-2-|\
|-5-7--8-7-5--7-5-3--5-3-1-|-0------0-| \
|                                         fade out
|--------------------------|----------| /
|--------------------------|----------|/
|--------------------------|------9---|
|-7-9-10-9-7--9-7-5--7-5-3-|-2----9-2-|gtr 2
|-7-9-10-9-7--9-7-5--7-5-3-|-2----7-2-|
|-5-7--8-7-5--7-5-3--5-3-1-|-0------0-|

  Visit MetalTabs.com for more metal tablature

bottom separator

Contact Us | Privacy Policy | Disclaimer | Legal Notice
Copyright © 2001-2014 MetalTabs.com. All Rights Reserved.