#----------------------------------PLEASE NOTE---------------------------------#
#This file is the author's own work and represents their interpretation of the #
#song. You may only use this file for private study, scholarship, or research. #
#Unless specified otherwise, this is NOT an official tab from the band members.#
#------------------------------------------------------------------------------#

  Visit MetalTabs.com for more metal tablature
  
Band : Exodus
Album : Bonded by Blood
Song : Piranha

Copyright (c) Torrid Originally  1985

Transcribed by : Rhys Hidrio
E-mail : bacon390@hotmail.com

Standard Tuning
  E  A  D  G


 Intro (Riff 1) x4
|------------------------------------------------------------------|
|------------------------------------------------------------------|
|--------------4-5--------------4-5---------------4-5--------------|
|-3-334-443--3------3-334-443-3------3-334-443--3------3-334-3-332-|

 Intro (Riff 2) x3
|-----------------|
|-----------------|
|-----------------|
|-3-334-3-332-----|


 Intro (Riff 3) x1
|-----------------|
|-----------------|
|-----------------|
|-3-334-3-332-3---|


Wait to play this  x1
|---------|
|---------|
|-3-2-----|
|-----4-3-|


 Pre-verse  (Riff 4) x1
|----------------------------------|
|----------------------------------|
|----------------------------3-2---|
|--3--------3--------------------4-|

 Verse  (Riff 5) x6
|-------------------------------------------------------------------|
|-------------------------------------------------------------------|
|------------------------------------------------------------3-2----|
|-3-33-3-3-3333-3-33--3-33-3-3-3333-3-33--3-33-3-3-3333-3-33-----4--|


 Chorus  (Riff 6) x4
|-----------------------------|
|-----------------------------|
|-----------------------3-2---|
|-3-334--333-2--333-333-----4-|



 Verse  (Riff 5) x6
|-------------------------------------------------------------------|
|-------------------------------------------------------------------|
|------------------------------------------------------------3-2----|
|-3-33-3-3-3333-3-33--3-33-3-3-3333-3-33--3-33-3-3-3333-3-33-----4--|



 Chorus  (Riff 6) x4
|-----------------------------|
|-----------------------------|
|-----------------------3-2---|
|-3-334--333-2--333-333-----4-|



 Under Solo (Riff 1) x4
|------------------------------------------------------------------|
|------------------------------------------------------------------|
|--------------4-5--------------4-5---------------4-5--------------|
|-3-334-443--3------3-334-443-3------3-334-443--3------3-334-3-332-|



  Under Solo (Riff 7) x4
|-------------------------------------------------------------------------|
|------------------------------------------------------------------------|
|----------------7-5------------3-5-7-------------7-5------10-9-----------|
|-0--000-000-000-----000-000-00-------000-000-000-----000----------10-8---|


 Bridge  (Riff 8) x1
|--------------------------------------------------------------|
|--------------------------------------------------------------|
|--------------------------------------------------------------|
|-7--6--000-000-000-000-000-00--7---6--000-000-000-000-000-00--|


 Bridge  (Riff 9) x1
|------------------------------------------------------------------|
|------------------------------------------------------------------|
|-------------------------------------------------2-2222-2222-2222-|
|-7--6--000-00--7--6--000-00--5--0000-0000-0000-5------------------|



 Outro  (Riff 1) x4
|------------------------------------------------------------------|
|------------------------------------------------------------------|
|--------------4-5--------------4-5---------------4-5--------------|
|-3-334-443--3------3-334-443-3------3-334-443--3------3-334-3-332-|



 Outro (Riff 2) x3
|-----------------|
|-----------------|
|-----------------|
|-3-334-3-332-----|



 Outro (Riff 3) x1
|-----------------|
|-----------------|
|-----------------|
|-3-334-3-332-3---|

         END
        -----

  Visit MetalTabs.com for more metal tablature