top separator

Home

Forum

What's New

Submit a Tab

FAQ

Links

Contact Us

Link to Us

MetalTabs.com logo

Bands

0-9

A

B

C

D

E

F

G

H

I

J

K

L

M

N

O

P

Q

R

S

T

U

V

W

X

Y

Z

Search

What

Where
 

Bolt Thrower - "Entrenched" Guitar Tab

Plain Text Version
More Bolt Thrower Tabs

Hits: 5934
Rated: 5.00 out of 5 (2 votes)
Updated: 2006-03-10 02:39:44

 

By:

travI56669

sendpm.gif

email.gif

Important note
This tab is available online because we obtained explicit permission from Bolt Thrower or their label.


#----------------------------------PLEASE NOTE---------------------------------#
#This file is the author's own work and represents their interpretation of the #
#song. You may only use this file for private study, scholarship, or research. #
#Unless specified otherwise, this is NOT an official tab from the band members.#
#------------------------------------------------------------------------------#

  Visit MetalTabs.com for more metal tablature
  
Band:  Bolt Thrower
Album: Those Once Loyal
Song:  Entrenched

Copyright (c)  Metalblade 2006
Version 1.0 - 2/21/06

Transcribed By: travI56669
Email:          marilynmaggot@yahoo.com


.  - palm mute           /  - slide up to
\  - slide down to       ~  - vibrato
h  - hammer on           b  - Bend
p  - pull off            Suffixes for bend
t  - tap                 f  - full bend    h - half bend
ph - pinched harmonic    q  - quarter bend t - tap bend
*  - see comment         ^  - Hold bend    r release bend
x  - Stuccatto           ~  - vibrato bend
,  - slight palm mute    () - ghost note, sustained note
"  - tremolo note        <> - Trill
I'm pretty new to Bolt Thrower but I heard this
song and thought it was pretty kickass, so I
tabbed the bitch out... Be sure to RATE this tab!
Tuning C#
Guitar I
|---------------------------------|-------------------------------|
|---------------------------------|-------------------------------|
|---------------------------------|-------------------------------|
|---------------------------------|-------------------------------|
|-4----------4---5----------------|-4----------4---5---787--7--8--|
|-2-00000000-2p0-3-00000000000000-|-2-00000000-2p0-3-0-5650-5--6--|
Guitar II
|---------------------------------|-------------------------------|
|---------------------------------|-------------------------------|
|---------------------------------|-------------------------------|
|---------------------------------|-------------------------------|
|-4----------4---5----------------|-4----------4---2--------7--8--|
|-2----------2---3----------------|-2----------2---3--------5--6--|
Guitars I & II
|---------------------------------|--------------------------------|
|---------------------------------|--------------------------------|
|---------------------------------|--------------------------------|
|---------------------------------|-10--10-------4--4----5---------|
|-4----------4---5-----787--7--8--|--8---8-------4--2----3---------|
|-2-00000000-2p0-3-00005650-5--6--|--------------------------------|

|---------------------------------------|
|---------------------------------------|
|---------------------------------------|
|---------------------------------------|
|---------------------------------------|
|-2222222222255550077778888888855885588-|
Guitar I
|---------|---------------------------------------|
|---------|---------------------------------------|
|---------|---------------------------------------|
|---------|---------------------------------------|
|-7"---5"-|-7"---5"--8"---11"--8"--11"--7"--------|
|---------|---------------------------------------|
Guitar II
|------------------------------------------------------|
|------------------------------------------------------|
|------------------------------------------------------|
|------------------------------------------------------|
|------------------------------------------------------|
|-0--0--1p0--0--0--0-1p01--0--0--1p0--0--0--0-1p0-1h3--|

|------------------------------------|
|------------------------------------|
|------------------------------------|
|----------------------3--6-3--3--6--|
|----------------------1--4-1--1--4--|
|-00000000000000000000---------------|
Solo
|-nh12~~--------nh12~~--------12"----------------------12"---------------------|
|--------\11~~---------\11~~--12"--11------------------12"--11-----------------|
|-------------------------------------12-11h12p11-12-9~--------12-11h12p11-9~--|
|------------------------------------------------------------------------------|
|------------------------------------------------------------------------------|
|------------------------------------------------------------------------------|

|-0"--1"-0"-3"-0"-4"-0"-3"-0"-1"-0"-3"-0"-1"-0"---|-0h1p0---0--|
|-------------------------------------------------|-------3----|
|-------------------------------------------------|------------|
|-------------------------------------------------|------------|
|-------------------------------------------------|------------|
|-------------------------------------------------|------------|

|----|
|----|
|----|
|-2--|
|-2--|
|-0--|

END

  Visit MetalTabs.com for more metal tablature

bottom separator

Contact Us | Privacy Policy | Disclaimer | Legal Notice
Copyright © 2001-2014 MetalTabs.com. All Rights Reserved.