top separator

Home

Forum

FAQ

Contact Us

Link to Us

MetalTabs.com logo

Bands

0-9

A

B

C

D

E

F

G

H

I

J

K

L

M

N

O

P

Q

R

S

T

U

V

W

X

Y

Z

Eucharist - "Greeting Immortality" Guitar Tab

Plain Text Version
More Eucharist Tabs

Hits: 2926
Rated: 5.00 out of 5 (4 votes)
Updated: 2006-03-10 02:40:24

By:


#----------------------------------PLEASE NOTE---------------------------------#
#This file is the author's own work and represents their interpretation of the #
#song. You may only use this file for private study, scholarship, or research. #
#Unless specified otherwise, this is NOT an official tab from the band members.#
#------------------------------------------------------------------------------#

  Visit MetalTabs.com for more metal tablature
  
Band:   EUCHARIST
Album:  A Velvet Creation
Song:   Greeting Immortality
Lyrics: Daniel Erlandsson
Copyright by Regain Records 1993

Tabbed by Krizzz of Project 666
E-Mail: project666@gmx.de
Version 1.1 - 22.02.2006


Tablature Legend
----------------
 h   - hammer-on
 p   - pull-off
 b   - bend
 pb  - pre-bend
 r   - bend release (if no number after the r, then release immediately)
 /\  - slide into or out of (from/to "nowhere")
 s   - legato slide
 S   - shift slide
<n>  - natural harmonic
[n]  - artificial harmonic
n(n) - tapped harmonic
 ~   - vibrato
 tr  - trill
 T   - tap
 TP  - trem. picking
 PM  - palm muting
\n/  - tremolo bar dip; n = amount to dip
 \n  - tremolo bar down
 n/  - tremolo bar up
/n\  - tremolo bar inverted dip
 =   - hold bend; also acts as connecting device for hammers/pulls
 <>  - volume swell (louder/softer)
 x   - on rhythm slash represents muted slash
 o   - on rhythm slash represents single note slash

Gtr I  Tuning (B E A D F# B)
Gtr II Tuning (B E A D F# B)



I've noticed that there isn't anything tabbed from the 1st Eucharist-Album,
so I had to do this masterpiece of early Swedish Death Metal.
It took me a few hours to figure everything out,
but now it should be quiet close to the original
(when I say "original" I talk about the EP-Version,
'cause it's 1000times more brutal than the LP-Version) !

This track lifted Eucharist among immortals
- it's worth to be remembered for all eternity !
"...and the blood in my veins is burning
as I realize that they never will be forgotten !!!"


Overture:
Acoustik Intro
(sorry, it's to complicated for me to transcribe,
so you have to figure it out for yourself ;o)



Riff 1a   (x1)

|-----------------------------------------------------------------------|
|-----------------------------------------------------------------------|
|--------------------------------------------------------------33334444-|Gtr I
|-2-------------------------------2----------------------2tr3-----------|
|-2-------------------------------2--------------1---2------------------|
|-o-------------------------------0------0---1--------------------------|
|                                        x   x
|
|-----------------------------------------------------------------------|
|-----------------------------------------------------------------------|
|--------------------------------------------------------------33334444-|Gtr II
|-2-------------------------------2----------------------2tr3-----------|
|-2-------------------------------2--------------1---2------------------|
|-o-------------------------------0------0---1--------------------------|
|                                        x   x


Riff 1b   (x1)

|------------------------------------------------------------------|
|------------------------------------------------------------------|
|------------------------------------------------------------------|Gtr I
|-----------------2222555544447777--------------------2222----3333-|
|---------33332222------------------------333322221111----3333-----|
|-00000000------------------------00000000-------------------------|
|
|
|------------------------------------------------------------------|
|------------------------------------------------------------------|
|------------------------------------------------------------------|Gtr II
|-----------------2222555544447777--------------------2222----3333-|
|---------33332222------------------------333322221111----3333-----|
|-00000000------------------------00000000-------------------------|


Riff 1c   (x1)

|------------------------------------------------------------------|
|------------------------------------------------------------------|
|--------------------------------------------------------33334444--|Gtr I
|-----------------222255554444--------------------2tr3-------------|
|---------33332222------------3333--------1---2--------------------|
|-00000000------------------------0---1----------------------------|
|                                 x   x
|
|------------------------------------------------------------------|
|------------------------------------------------------------------|
|--------------------------------------------------------33334444--|Gtr II
|-----------------222255554444--------------------2tr3-------------|
|---------33332222------------3333--------1---2--------------------|
|-00000000------------------------0---1----------------------------|
|                                 x   x

after you've finished that repeat 1b, than play Riff 1d

Riff 1d   (x1)

|------------------------------------------------------------------|
|------------------------------------------------------------------|
|--------------------------------------------------------3---------|Gtr I
|-----------------222255554444--------------------2tr3---1---4-----|
|---------33332222------------3333--------1---2--------------2-----|
|-00000000------------------------0---1----------------------------|
|                                 x   x
|
|------------------------------------------------------------------|
|------------------------------------------------------------------|
|--------------------------------------------------------3---------|Gtr II
|-----------------222255554444--------------------2tr3---1---4-----|
|---------33332222------------3333--------1---2--------------2-----|
|-00000000------------------------0---1----------------------------|
|                                 x   x



Riff 2a  (x2)

|-------------------------------------------------------------------|
|-------------------------------------------------------------------|
|------------------------------------------------5/4-5-3-4----------|Gtr I
|------------------------------------------------3/2-5-1-4----------|
|-----------------33333333----1111---------------3/2-3-1-2----------|
|-0000000000000000--------1111----000000000000000-------------------|
|
|
|-------------------------------------------------------------------|
|-------------------------------------------------------------------|
|-------------------------------------------------------------------|Gtr II
|-2--------------------------------------------------5---4----------|
|-2--------------------------------------------------3---2----------|
|-0--------------------------------------------------3---2----------|
  o                                                  o   o

Riff 2   (x2)

|-------------------------------------------------------------------|
|-------------------------------------------------------------------|
|------------------------------------------------5/4-5-3-4----------|Gtr I
|------------------------------------------------3/2-5-1-4----------|
|-----------------33333333----1111---------------3/2-3-1-2----------|
|-0000000000000000--------1111----000000000000000-------------------|
|
|
|-------------------------------------------------------------------|
|-------------------------------------------------------------------|
|------------------------------------------------5/4-5-3-4----------|Gtr II
|------------------------------------------------3/2-5-1-4----------|
|-----------------33333333----1111---------------3/2-3-1-2----------|
|-0000000000000000--------1111----000000000000000-------------------|




Riff 3   (x2)

|----------------------------------|
|----------------------------------|
|----------------------------------|Gtr I
|-9--------7-------4--------5---7--|
|-7--------7---7---5--------7---5--|
|--------------8-------------------|
|
|
|----------------------------------|
|----------------------------------|
|----------------------------------|Gtr II
|-9--------7-------4--------5---7--|
|-7--------7---7---5--------7---5--|
|--------------8-------------------|


repeat Riff 2  (x2)


Riff 3a  (x2)

|----------------------------------|
|----------------------------------|
|----------------------------------|Gtr I
|-999999997777----4444444455555555-|
|-------------7777-----------------|
|----------------------------------|
|
|
|----------------------------------|
|----------------------------------|
|----------------------------------|Gtr II
|----------------------------------|
|-777777777777----555555555555-----|
|-------------8888------------8888-|




Riff 4          play in the following order:
                1st (4a,4b,4a,4c) 2nd (4a,4b,4a,4d)

when you're playing the 2nd part of that order, start singing the 1st verse:
"Beneath the ground, Where I sleep among immortals..."

Riff 4a
|------------------------------------------|
|------------------------------------------|
|------------------------------------------|Gtr I
|-9-- 10---9---10/9/10-9---10--9-----------|
|-7---8 ---7---8/ 7/8--7---8---7----8-8-8--|
|--000--000-000---------000-000-000-6-6-6--|
|  xxx  xxx xxx         xxx xxx xxx
|
|------------------------------------------|
|------------------------------------------|
|------------------------------------------|Gtr II
|-9-- 10---9---10/9/10-9---10--9-----------|
|-7---8 ---7---8/ 7/8--7---8---7----8-8-8--|
|--000--000-000---------000-000-000-6-6-6--|
|  xxx  xxx xxx         xxx xxx xxx

Riff 4b
|------------------------------------------|
|------------------------------------------|
|------------------------------------------|Gtr I
|-9-- 10---9---10/9/10-555555666666555555--|
|-7---8 ---7---8/ 7/8--------------------8~|
|--000--000-000----------------------------|
|  xxx  xxx xxx                          PM
|
|------------------------------------------|
|------------------------------------------|
|------------------------------------------|Gtr II
|-9-- 10---9---10/9/10-555555666666555555--|
|-7---8 ---7---8/ 7/8--------------------8~|
|--000--000-000----------------------------|
|  xxx  xxx xxx                          PM

Riff 4c
|------------------------------------------------|
|------------------------------------------------|
|------------------------------------------------|Gtr I
|-9-- 10---9---10/9/10-999999101010------888888--|
|-7---8 ---7---8/ 7/8--------------888888--------|
|--000--000-000----------------------------------|
|  xxx  xxx xxx
|
|------------------------------------------------|
|------------------------------------------------|
|------------------------------------------------|Gtr II
|-9-- 10---9---10/9/10-999999101010------888888--|
|-7---8 ---7---8/ 7/8--------------888888--------|
|--000--000-000----------------------------------|
|  xxx  xxx xxx

Riff 4d
|---------------------------------|
|---------------------------------|
|----------------------11---------|Gtr I
|-9-- 10---9---10/9/10-9---11-10--|
|-7---8 ---7---8/ 7/8------9--8---|
|--000--000-000-------------------|
|  xxx  xxx xxx
|
|---------------------------------|
|---------------------------------|
|----------------------11---------|Gtr II
|-9-- 10---9---10/9/10-9---11-10--|
|-7---8 ---7---8/ 7/8------9--8---|
|--000--000-000-------------------|
|  xxx  xxx xxx



repeat  Riff 2(x2)
	Riff 3(x2)



Riff 5 (x2)

|--------------------------------------------------------|
|--------------------------------------------------------|
|--------------------------------------------------------|Gtr I
|-----------5/4------------------------5/4-3-3--3--------|
|-2-2--2-2--3/2-3-3--3-6-5-6-2-2--2-2--3/2-1-1--1-5--6/3-|
|-0-0--0-0------1-1--1/4-3/4-0-0--0-0-------------3--4/1-|
|
|
|--------------------------------------------------------|
|--------------------------------------------------------|
|--------------------------------------------------------|Gtr II
|-----------5/4------------------------5/4-3-3--3--------|
|-2-2--2-2--3/2-3-3--3-6-5-6-2-2--2-2--3/2-1-1--1-5--6/3-|
|-0-0--0-0------1-1--1/4-3/4-0-0--0-0-------------3--4/1-|


Riff 5a (Fill)

|-----------------|
|-----------------|
|-----------------|Gtr I
|-----------------|
|-2---2---2-------|
|-0---0---0-------|
| o   o   o
|
|-----------------|
|-----------------|
|-----------------|Gtr I
|-----------------|
|-2---2---2-------|
|-0---0---0-------|
| o   o   o



Riff 6 (X2)

|-------------------------------------------------------|
|-------------------------------------------------------|
|------------------------------------------------5/4----|Gtr I
|-------------------5/4-------------5----------5-----5~-|
|-2------3-6-2------3/2-5--2------3-3-2------3----------|
|-0------1-4-0----------3--0------1---0-----------------|
|
|
|-------------------------------------------------------|
|-------------------------------------------------------|
|-------------------------------------------------------|Gtr II
|-------------------5/4-------------3------------3/2----|
|-2------3-6-2------3/2-5--2------3---2--------3-----3~-|
|-0------1-4-0----------3--0------1---0------1----------|
                                    PM


Riff 1  (1b,1c,1b,1c) x2
Riff 5



Riff 7a

|-------------------------------------------------------------------|
|-------------------------------------------------------------------|
|-------------------------------------------------------------------|Gtr I
|-----2-------5---4---5-------1--------2-------5---4---5-------4----|
|-2-------3---------------2-------2--------3---------------5--------|
|-0-------------------------------0---------------------------------|
|
|
|-------------------------------------------------------------------|
|-------------------------------------------------------------------|
|-------------------------------------------------------------------|Gtr II
|-2-------------------------------2---------------------------------|
|-2-------------------------------2---------------------------------|
|-0-------------------------------0---------------------------------|



|-------------------------------------------------------------------|
|-------------------------------------------------------------------|
|-------------------------------------------------------------------|Gtr I
|-----2-------5---4---5-------1--------2-------5---4---5-------4----|
|-2-------3---------------2-------2--------3---------------5--------|
|-0-------------------------------0---------------------------------|
|
|
|-------------------------------------------------------------------|
|-------------------------------------------------------------------|
|-4-------------------------------9~--------------------------------|Gtr II
|-2-----------------------------------------------------------------|
|-------------------------------------------------------------------|
|-------------------------------------------------------------------|


Riff 7 (x4)

|-------------------------------------------------------------------|
|-------------------------------------------------------------------|
|-------------------------------------------------------------------|Gtr I
|-----2-------5---4---5-------1--------2-------5---4---5-------4----|
|-2-------3---------------2-------2--------3---------------5--------|
|-0-------------------------------0---------------------------------|
|
|
|-------------------------------------------------------------------|
|-------------------------------------------------------------------|
|-------------------------------------------------------------------|Gtr II
|-----2-------5---4---5-------1--------2-------5---4---5-------4----|
|-2-------3---------------2-------2--------3---------------5--------|
|-0-------------------------------0---------------------------------|


Congratulations, you made it ...so far, so good -
but is your drummer able to manage that kickass Erlandsson style ?

  Visit MetalTabs.com for more metal tablature

bottom separator

Contact Us | Privacy Policy | Disclaimer
Copyright © 2001-2014 MetalTabs.com. All Rights Reserved.