top separator

Home

Forum

What's New

Submit a Tab

FAQ

Links

Contact Us

Link to Us

MuSpy.com

MetalTabs.com logo

Bands

0-9

A

B

C

D

E

F

G

H

I

J

K

L

M

N

O

P

Q

R

S

T

U

V

W

X

Y

Z

Search

What

Where
 

Mortal Decay - "Cadaverous Sculptures Part 1 - Preparing For Display" Guitar Tab

Plain Text Version
More Mortal Decay Tabs

Hits: 2254
Updated: 2006-03-10 02:35:43

 

By:

Yura

sendpm.gif

email.gif

Important note
This tab is available online because we obtained explicit permission from Mortal Decay or their label.


#----------------------------------PLEASE NOTE---------------------------------#
#This file is the author's own work and represents their interpretation of the #
#song. You may only use this file for private study, scholarship, or research. #
#Unless specified otherwise, this is NOT an official tab from the band members.#
#------------------------------------------------------------------------------#

  Visit MetalTabs.com for more metal tablature
  
Song :  CADAVEROUS SCULTURES PART 1 - PREPARONG FOR DISPLAY
Band : MORTAL DECAY
ALBUM : CADAVER ART
Copyright Unique Records 2005

transcribed by : Yura Kowalchuk
       contact : yura_kowalchuk@mail.ru
URL: [www.blood-scrapes.nm.ru]

::TABULATURE LEGEND::
 " - tremolo             h - hammer on
 ~ - vibrato             \ - slide down
 p - pull off            / - slide down
 tr - trill              ^ - pinch harmonics
 = - sustained note      b - bend string
 p.m. - palm muting      t - tapping
           <> - natural harmonics

Tuning is C [ C, F, A#, D#, G, C]

[Riff 1 (x4)]
|-------------------------|-------------------------|-
|-------------------------|-------------------------|-
|-------------------------|-------------------------|-
|-------------------------|-------------------------|-
|-5-5-5-5-5\4-5-5-5-5-5\4-|-5-5-5-5-5\4-5-5-5-5-5\4-|-
|-3-3-3-3-3\2-3-3-3-3-3\2-|-3-3-3-3-3\2-3-3-3-3-3\2-|-
  . . . .     . . . .       . . . .     . . . .

-------------------------|--------------------------------|
-------------------------|--------------------------------|
-------------------------|--------------------------------|
-------------------------|--------------------------------|
-8-8-8-8-8-8-7---8---7---|-10/11-11-11-11-11-10---11---8--|
-6-6-6-6-6-6-5-0-6-0-5-0-|--8/9--9--9--9--9--8--0-9--0-6--|
 . . . . . .                     .  .  .  .

[Riff 2]
|--------------|--------------|--------------|
|--------------|--------------|--------------|
|--------------|--------------|--------------|
|--8----9------|--8----9------|--8----9------|
|--6----7---8--|--6----7---8--|--6----7---8--|
|----0----0-6--|----0----0-6--|----0----0-6--|
|    .    .    |    .    .    |    .    .    |
|--------------|--------------|--------------|
|--------------|--------------|--------------|
|--------------|--------------|--------------|
|--------------|--------------|--------------|
|-10---11---8--|-10---11---8--|-10---11---8--|
|-8--0-9--0-6--|-8--0-9--0-6--|-8--0-9--0-6--|
     .    .         .    .         .    .

[Riff 3a (x2)]
|---------------------------|
|---------------------------|
|---------------------------|
|---------7"..---------7"..-|
|-5"7"6"5"-----5"7"6"5"-----|
|---------------------------|
|                           |
|---------------------------|
|---------------------------|
|---------------------------|
|---------------------------|
|---------9"..---------9"..-|
|-7"9"8"7"-----7"9"8"7"-----|

[Riff 3b]
|---------8"..--------------|---------------------------|
|-6"8"7"6"-------------10".-|----------11".--------9"..-|
|--------------7"9"8"7"-----|-8"10"9"8"----6"8"7"6"-----|
|---------------------------|---------------------------|
|---------------------------|---------------------------|
|---------------------------|---------------------------|
|                           |                           |
|---------------------------|---------------------------|
|---------------------------|---------------------------|
|---------5"..--------------|---------------------------|
|-3"5"4"---------------7"..-|---------8"..---------6"..-|
|--------------5"7"6"5"-----|-6"8"7"6"-----4"6"5"4"-----|
|---------------------------|---------------------------|

[RIFF 3a (x2)]

[Riff 4 (x2)]
|-------------------------|-----------------------------|-
|-------------------------|-----------------------------|-
|-------------------------|-----------------------------|-
|-------------------------|---11-10---10----11-10---10--|-
|-------------9"----8"-9"-|-9-9--8--9-8---9-9--8--9-8---|-
|-7"-9"-8"-7"----7"-------|-7-------7-----7-------7-----|-

-|-------------------------|-------------------------|
-|-------------------------|-------------------------|
-|-------------------------|-------------------------|
-|-------------------------|---------11----------11--|
-|-------------9"----8"-9"-|-7-9-8-7-9---7-9-8-7-9---|
-|-7"-9"-8"-7"----7"-------|-7-9-8-7-9---7-9-8-7-9---|
                             . . . .     . . . .
[Riff 5a]
|-------[x12]-|--------[x2]-|-------[x2]-|
|-------------|-------------|------------|
|-------------|-------------|------------|
|---------11--|---------^---|------------|
|-7-9-8-7-9---|-7-9-8-7-9~--|-7-9-8-7----|
|-7-9-8-7-9---|-7-9-8-7-----|-7-9-8-7----|
  . . . .       . . .         . . . .

[Riff 5b]
|---------[x4]-|-------------[x2]-|---------[x4]-|
|--------------|------------------|--------------|
|--------------|------------------|--------------|
|--------------|------------------|--------------|
|-7-9-8-7-9"..-|-7-9-8-7-8-7-9"..-|-7-9-8-7-9"..-|
|-7-9-8-7------|-7-9-8-7-8-7------|-7-9-8-7------|
  . . . .        . . . . . .        . . . .

[Riff 6 (x4)]
|-------------------------------------|---------------------------------|
|-------------------------------------|---------------------------------|
|-------------------------------------|---------------------------------|
|-------------------11"..-------------|-10"..-----------10"..-----------|
|-12"..-------------------9-11-10-9---|-------8-10-9-8--------8-10-9-8--|
|-------10-12-11-10-------------------|---------------------------------|
|       .  .  .  .        . .  .  .   |       . .  . .        . .  . .  |
|-------------------------------------|---------------------------------|
|-------------------------------------|---------------------------------|
|-------------------------------------|---------------------------------|
|-------------------------------------|---------------------------------|
|-12"..-------------12"..-------------|-11"..-----------11"..-----------|
|-------10-12-11-10-------10-12-11-10-|-------9-11-10-9-------9-11-10-9-|
        .  .  .  .        .  .  .  .          . .  .  .       . .  .  .

[Riff 7 (x2)]
|--------------------|--------------------|
|--------------------|--------------------|
|--------------------|--------------------|
|-7=================-|-6=================-|
|-5=================-|-4=================-|
|-5=================-|-4=================-|
|                    |                    |
|--------------------|--------------------|
|--------------------|--------------------|
|--------------------|--------------------|
|-/______(x4)______\-|-/______(x4)______\-|
|-12"..--------------|-11"..--------------|
|-------10-12-11-10--|-------9-11-10-9----|
        .  .  .  .           . .  .  .

[RIFF 6 (x2)]

[Riff 8]
|---------[x4]-|------------------|------------------|
|--------------|------------------|------------------|
|--------------|------------------|-14--14-------13--|
|---------7"..-|-------------7"..-|-12--12-------11--|
|-5-7-6-5------|-5-7-6-5-6-5------|-12--12-------11--|
|--------------|------------------|---------0000-----|
| . . . .      | . . . . . .      |                  |
|---------[x4]-|------------------|------------------|
|--------------|------------------|------------------|
|--------------|------------------|-14--14-------13--|
|--------------|------------------|-12--12-------11--|
|---------9"..-|-------------9"..-|-12--12-------11--|
|-7-9-8-7------|-7-9-8-7-8-7------|---------0000-----|
  . . . .        . . . . . .

[Riff 9 (x4)]
|------------------------------------|
|------------------------------------|
|-----11---12-------14--14-------13--|
|---9----9----10----12--12-------11--|
|-7--------------7/-12--12-------11--|
|---------------------------0000-----|
  . . .  . .  .

[Riff 11a (x2)]
|-------------------------------|-------------------------------|-
|-------------------------------|-------------------------------|-
|-----11---12--------11---12----|-----11---12--------11---12----|-
|---9----9----10---9----9----10-|---9----9----10---9----9----10-|-
|-7--------------7--------------|-7--------------7--------------|-
|-------------------------------|-------------------------------|-
  . . .  . .  .  . . .  . .  .    . . .  . .  .  . . .  . .  .
                            __________________________
                           | ending 1
-|-------------------------|--------------------------|
-|-------------------------|--------------------------|
-|-----9---9-------8---8---|-----9------------7-----5-|
-|---7---7---7---6---6---6-|---7-------11---5-----3---|
-|-5-----------4-----------|-5-------9----3-----1-----|
-|-------------------------|-------7------------------|
   . . . . . . . . . . . .   . . . . . .  . . . . . .
 __________________________________________________________________
|ending 2
 -------------------------------------------------------------------|
 -------------------------------------------------------------------|
 -----9------------7----------------------------5-----7-----6-----9-|
 ---7-------11---5-------3=================---3-----5-----4-----7---|
 -5-------9----3-----1-1-1=================-1-----3-----2-----5-----|
 -------7----------------1=================-------------------------|
  . . . . . .  . . . . .                    . . . . . . . . . . . . |
 ----------------------------------7h8=============================-|
 --------------------------------6----------------------------------|
 -------------------------------------------------------------------|
 ------------------------------8------------------------------------|
 -------------------------------------------------------------------|
 -------------------------------------------------------------------|
                                                                    |
 ---------------------------------10h11============================-|
 --------------------------------9----------------------------------|
 -------------------------------------------------------------------|
 ------------------------------11-----------------------------------|
 -------------------------------------------------------------------|
 -------------------------------------------------------------------|

[Riff 11b (x2)]
|-------------------------------|-------------------------------|-
|-------------------------------|-------------------------------|-
|-----11---12--------11---12----|-----11---12--------11---12----|-
|---9----9----10---9----9----10-|---9----9----10---9----9----10-|-
|-7--------------7--------------|-7--------------7--------------|-
|-------------------------------|-------------------------------|-
  . . .  . .  .  . . .  . .  .    . . .  . .  .  . . .  . .  .

 ___________________________________________________________________
|ending 1
 -------------------------------------------------------------------|
 -------------------------------------------------------------------|
 -----9------------7----------------------------5-----7-----6-----9-|
 ---7-------11---5-------3=================---3-----5-----4-----7---|
 -5-------9----3-----1-1-1=================-1-----3-----2-----5-----|
 -------7----------------1=================-------------------------|
  . . . . . .  . . . . .                    . . . . . . . . . . . . |
 ----------------------------------7h8=============================-|
 --------------------------------6----------------------------------|
 -------------------------------------------------------------------|
 ------------------------------8------------------------------------|
 -------------------------------------------------------------------|
 -------------------------------------------------------------------|
                                                                    |
 ---------------------------------10h11============================-|
 --------------------------------9----------------------------------|
 -------------------------------------------------------------------|
 ------------------------------11-----------------------------------|
 -------------------------------------------------------------------|
 -------------------------------------------------------------------|

 ___________________________________________________________________
|ending 2
 -------------------------------------------------------------------|
 -------------------------------------------------------------------|
 -----9------------7------------------------------------------------|
 ---7-------11---5-------3=================-----3-----5-----4-----7-|
 -5-------9----3-----1-1-1=================-11111-33333-22222-55555-|
 -------7----------------1=================-------------------------|
  . . . . . .  . . . . .

[Riff 12 (x2)]
|------------------------------------------------------------
|------------------------------------------------------------
|------------------------------------------------------------
|-----9-----10-------9-----10-------9-----10-------9-----10--
|-77777-7-7-8----77777-7-7-8----77777-7-7-8----77777-7-7-8---
|------------------------------------------------------------

 ___________________________________________________________________
|ending 1
 -------------------------------------------------------------------|
 -------------------------------------------------------------------|
 -------------------------------------------------------------------|
 -----7-----4-----5------3=================-----3-----5-----4-----7-|
 -55555-22222-33333-1111-1=================-11111-33333-22222-55555-|
 ------------------------1=================-------------------------|
 ___________________________________________________________________
|ending 2
 -------------------------------------------------------------------|
 -------------------------------------------------------------------|
 -------------------------------------------------------------------|
 -----7-----4-----5------3=================-----3-----5-----4-----7-|
 -55555-22222-33333-1111-1=================-11111-33333-22222-55555-|
 ------------------------1=================-------------------------|
                                                                    |
 ----------------------------------7h8=============================-|
 --------------------------------6----------------------------------|
 -------------------------------------------------------------------|
 ------------------------------8------------------------------------|
 -------------------------------------------------------------------|
 -------------------------------------------------------------------|
                                                                    |
 ---------------------------------10h11============================-|
 --------------------------------9----------------------------------|
 -------------------------------------------------------------------|
 ------------------------------11-----------------------------------|
 -------------------------------------------------------------------|
 -------------------------------------------------------------------|

[Riff 13]
|-------[x7]-|-------------|-------[x4]-|-------[x4]-|-------------|
|------------|-------------|------------|------------|-------------|
|------------|-------------|------------|------------|-------------|
|------------|-------------|------------|------------|-------------|
|-----2---3--|-2-2-2-2-2-2-|-----5---6--|-----2---3--|-2-2-2-2-2-2-|
|-0-0-0-0-1--|-0-0-0-0-0-0-|-3-3-3-0-4--|-0-0-0-0-1--|-0-0-0-0-0-0-|
  . .   .      . . . . . .   . .   .      . .   .      . . . . . .

[Riff 14]
|----------------------[x7]-|--------------------------|
|---------------------------|--------------------------|
|---------------------------|--------------------------|
|-------------------4/5-3---|-------------------4-5-3--|
|-3-----2---2-3-5---2/3-1---|-3-----2---2-3-5---2-3-1--|
|-1-0-0-0-0-0-1-3-0---------|-1-0-0-0-0-0-1-3-0--------|
                                    . . . . . . . . .
END OF SONG

  Visit MetalTabs.com for more metal tablature

bottom separator

Contact Us | Privacy Policy | Disclaimer | Legal Notice
Copyright © 2001-2014 MetalTabs.com. All Rights Reserved.