top separator

Home

Forum

What's New

Submit a Tab

FAQ

Links

Contact Us

Link to Us

MuSpy.com

MetalTabs.com logo

Bands

0-9

A

B

C

D

E

F

G

H

I

J

K

L

M

N

O

P

Q

R

S

T

U

V

W

X

Y

Z

Search

What

Where
 

Korpiklaani - "Before the morning sun" Guitar Tab

Plain Text Version
More Korpiklaani Tabs

Hits: 5384
Rated: 3.00 out of 5 (1 vote)
Updated: 2006-03-10 02:33:36

 

By:

Darkenelf

sendpm.gif

email.gif

Important note
This tab is available online because we obtained explicit permission from Korpiklaani or their label.


#----------------------------------PLEASE NOTE---------------------------------#
#This file is the author's own work and represents their interpretation of the #
#song. You may only use this file for private study, scholarship, or research. #
#Unless specified otherwise, this is NOT an official tab from the band members.#
#------------------------------------------------------------------------------#

  Visit MetalTabs.com for more metal tablature
  
Band: Korpiklaani
Album: Spirit of the Forest
Song: Before the Morning Sun

Copyright (c)  (Napalm Records) (2003)
Version 1.0 - (20-02-2006)

Transcribed By: (Asmundr/Darkenelf)
Email:          (asmundr@vikingblood.net)

.  - palm mute           /  - slide up to
\  - slide down to       ~  - vibrato
h  - hammer on           b  - Bend
p  - pull off            Suffixes for bend
t  - tap                 f  - full bend    h - half bend
ph - pinched harmonic    q  - quarter bend t - tap bend
*  - see comment         ^  - Hold bend    r release bend
x  - Stuccatto           ~  - vibrato bend
,  - slight palm mute    () - ghost note, sustained note
"  - tremolo note        <> - Trill

Tuning E A D G B E

A (Git 1)
|-------------------------------------------------------------------|
|-------------------------------------------------------------------|
|-------------------------------------------------------------------|(1x)
|---------------------------------------7~--------------------------|
|-4-4-2h4-7-7-2h4---22-4-4-2h4-9-9---7------------------------------|
|-2-2-0h2-5-5-0h2---00-2-2-0h2-7-7-0-5------------------------------|
                    ..
B (Git 1)
|-------------------------------------------------------------------|
|-------------------------------------------------------------------|
|-------------------------------------------------------------------|(1x)
|--------------------------5~-4~-2h---2h----------------------------|
|-4-4-2h4-7-7-2h4---22-4~-----------5----5p4------------------------|
|-2-2-0h2-5-5-0h2---00-2----------------------2~--------------------|

Repeat A + B 1x

C (0:23) Lead
|--------99999-97------------------------99999-97-------------------|
|-77-10-----------10-9-----------------9----------10-9-7-7----------|
|----------------------10-10-----10-10------------------------------|(4x)
|-------------------------------------------------------------------|
|-------------------------------------------------------------------|
|-------------------------------------------------------------------|

D (0:23) Chords
|-------------------------------------------------------------------|
|-------------------------------------------------------------------|
|-------------------------------------------------------------------|(4x)
|-------------------------------------------------------------------|
|-------------------2-2-----4-44-4-44-4-----------------------------|
|-2-22-2-22-2-0-2-5---------------------7p5p4-2-2-------------------|
    ..   ..                   ..   ..

E (0:44)
|-------------------------------------------------------------------|
|-------------------------------------------------------------------|
|-------------------------------------------------------------------|(4x)
|-------------------------------4-----------------------------------|
|-4-44-4--/-9-99-9-----4-44-44--2-5-4-2-----------------------------|
|-2-22-2--/-7-77-7-----2-22-22----------5-4-------------------------|
               .

F (1:04) Lead
|--------------------------------------7~---------------------------|
|--------10-7-5h7p5h-------------10-7-------------------------------|
|-9-7h9--------------7-----9-7h9------------------------------------|(4x)
|-------------------------------------------------------------------|
|-------------------------------------------------------------------|
|-------------------------------------------------------------------|

F (1:04) Chords
|-------------------------------------------------------------------|
|-------------------------------------------------------------------|
|-------------------------------------------------------------------|(4x)
|-9-7/9--12----------------9-7/9--12--------------------------------|
|-7-5/7--10-12-12121212----7-5/7--10-12-9~--------------------------|
|-----------10-10101010--------------10-7---------------------------|

Repeat E 4x (1:25)
Repeat F Lead + Chords 4x (1:46)

G (2:09) Chords
|-------------------------------------------------------------------|
|-------------------------------------------------------------------|
|---------------------------6-------4-------------------------------|(4x)
|---------------------------4-------2-------7-----6-----------------|
|-4-----------------------------------------5-----4-----------------|
|-2-22-22-22-22-22-22--000-----000-----000----000-------------------|
    .. .. .. .. .. ..  ...     ...     ...    ...

G (2:09) Lead/Solo
|--------------14-14-14-12------------------------141414-121212-----|
|-12-14-15-14--------------15-14--12-14-15--12h14-------------------|
|-------------------------------------------------------------------|
|-------------------------------------------------------------------|
|-------------------------------------------------------------------|
|-------------------------------------------------------------------|

|-------------------------------------------------------------------|
|-151515-141414---15~-15~-15~-15~-\14~------------------------------|
|-------------------------------------------------------------------|
|-------------------------------------------------------------------|
|-------------------------------------------------------------------|
|-------------------------------------------------------------------|

|--------------14-14-14-12------------------------141414-121212-----|
|-12-14-15-14--------------15-14--12-14-15--12h14-------------------|
|-------------------------------------------------------------------|
|-------------------------------------------------------------------|
|-------------------------------------------------------------------|
|-------------------------------------------------------------------|

|--------------------------------------------------------------12---|
|-151515-141414---15~-15~-15~-15~-15~-15~---12h14h15-12h14h15h------|
|-----------------14--14--14----------------------------------------|
|-------------------------------------------------------------------|
|-------------------------------------------------------------------|
|-------------------------------------------------------------------|

|-------12h14------12h14h15p14-1515p14p12---------------------------|
|-14h15--------15h------------------------15p14p12-----12~----------|
|--------------------------------------------------15p--------------|
|-------------------------------------------------------------------|
|-------------------------------------------------------------------|
|-------------------------------------------------------------------|

H (2:33) Chords
|-------------------------------------------------------------------|
|-------------------------------------------------------------------|
|-------------------------------------------------------------------|(4x)
|-7-----5-----7-----5-----5-----------------------------------------|
|-5-5---3-3---5-5---3--7-h3-----------------------------------------|
|----------------------5--------------------------------------------|
    .     .     .

H (2:33) Lead
|-------------------------------8~-7p5------------------------------|
|--------8-5--3h5p3---------8-5-------------------------------------|
|-7-5h7---------------7-5h7-----------------------------------------|(4x)
|-------------------------------------------------------------------|
|-------------------------------------------------------------------|
|-------------------------------------------------------------------|

Repeat C + D 4x (2:54)
Repeat E (3:16)
Repeat F Lead + Chords 4x (3:37)
Repeat G Chords (3:58) 4x

I (3:58) Lead/Solo
|--------------14-14-14-12------------------------141414-121212-----|
|-12-14-15-14--------------15-14--12-14-15--12h14-------------------|
|-------------------------------------------------------------------|
|-------------------------------------------------------------------|
|-------------------------------------------------------------------|
|-------------------------------------------------------------------|
                                                                     (3x)
|-------------------------------------------------------------------|
|-151515-141414-----------------------------------------------------|
|-------------------------------------------------------------------|
|-------------------------------------------------------------------|
|-------------------------------------------------------------------|
|-------------------------------------------------------------------|

J (4:14) Lead/Solo 2
|--------------14-14-14-12------------------------------------------|
|-12-14-15-14--------------15-14--12-14-15--12h14---12h14h15--------|
|-------------------------------------------------------------------|
|-------------------------------------------------------------------|
|-------------------------------------------------------------------|
|-------------------------------------------------------------------|

|-----------12---------12h14------12h14h15p14-1515p14p12--------------|
|-12h14h15h-----14h15p--------15p------------------------15p14----12~-|
|--------------------------------------------------------------15-----|
|---------------------------------------------------------------------|
|---------------------------------------------------------------------|
|---------------------------------------------------------------------|

(End of Song)

  Visit MetalTabs.com for more metal tablature

bottom separator

Contact Us | Privacy Policy | Disclaimer | Legal Notice
Copyright © 2001-2014 MetalTabs.com. All Rights Reserved.