top separator

Home

Forum

What's New

Submit a Tab

FAQ

Links

Contact Us

Link to Us

MetalTabs.com logo

Bands

0-9

A

B

C

D

E

F

G

H

I

J

K

L

M

N

O

P

Q

R

S

T

U

V

W

X

Y

Z

Search

What

Where
 

At The Gates - "Within" Guitar Tab

Plain Text Version
More At The Gates Tabs

Hits: 2946
Rated: 5.00 out of 5 (2 votes)
Updated: 2006-03-10 02:32:05

 

By:

sendpm.gif

email.gif

Important note
This tab is available online because we obtained explicit permission from At The Gates or their label.


#----------------------------------PLEASE NOTE---------------------------------#
#This file is the author's own work and represents their interpretation of the #
#song. You may only use this file for private study, scholarship, or research. #
#Unless specified otherwise, this is NOT an official tab from the band members.#
#------------------------------------------------------------------------------#

  Visit MetalTabs.com for more metal tablature
  
Band:  At The Gates
Album: The Red In The Sky Is Ours
Song:  Within

Copyright (c)  Deaf Records, 1992
Version 1.0 - 11/05/2005

Transcribed By: Matt Evans
Email:          darthsnave@hotmail.com

-=-=-=-=-=-=-=-=-=-=-=-=-=-=-=-=-=-=-=-=-=-=-=-=-=-=-=-=-=-=-=-=-=-=-=-=-=-=-=-

                             A T  T H E  G A T E S
                                  W I T H I N
                  From the '92 Album "The Red in the Sky is Ours"


Notation explanation:

B|-----------------------------------------13p12------------------------------|
G|----------------------------------12h13-------------------------------------|
D|------------------------------------------------6t7------------------(8)----|
A|----2------/5------7\---------------------------------6b7----9~~~-----------|
E|----2---------------------10///---------------------------------------------|
B|----0-----------------------------------------------------------------------|
            Slide  Slide   Tremolo  Hammer  Pull         Full          Ghost
   B5-chord into   out of  picking    on    off   Trill  bend  Vibrato note


 Guitar 1: Left Channel    Guitar 3: Center Channel    Guitar 2: Right Channel

All guitars are 6-string and tuned to B.

-=-=-=-=-=-=-=-=-=-=-=-=-=-=-=-=-=-=-=-=-=-=-=-=-=-=-=-=-=-=-=-=-=-=-=-=-=-=-=-

RIFF 1a x4 (0:00)
|----------------------------------------------------|
|----------------------------------------------------|GTRS
|----------------------------------------------------|1&2
|----------------------/5~----------------------/5~--|
|-----6-7----------6-7---------6-7----------6-7------|
|--4-------6-7--4-----------4-------6-7--4-----------|

RIFF 1b x2 (0:09)
|----------------------------------------------------|
|----------------------------------------------------|GTR
|----------------------/4~----------------------/4~--| 3
|-----4-5-4t5------4-5---------4-5-4t5------4-5------|
|--6---------7--6-----------6---------7--6-----------|
|----------------------------------------------------|

RIFF 2 x2 (0:17)
|----------------------------------------------------|
|----------------------------------------------------|GTRS
|----------------------------------------------------|1&2
|---------------------/6~----------------------2t3---|
|-6--5-2--5-3--6--5-2------6--5-2--5-3--6--5-2----4t5|
|-4--3-0--3-1--4--3-0------4--3-0--3-1--4--3-0-------|

Repeat RIFF 1a (GTRS 1&2) x2 (w/ RIFF 1b on 2) over RIFF 1c (GTR 3):

RIFF 1c x2 (0:34)
|----------------------/3~----------------------/3~~~|
|-----3-4----------3-4---------3-4----------3-4------|GTR
|----------3-4----------------------3-4--------------| 3
|--6------------6-----------6------------6-----------|
|----------------------------------------------------|
|----------------------------------------------------|

RIFF 3a x4 (0:56)
|-------------------------------------------------------|
|-------------------------------------------------------|GTR
|-------------------------------------------------------| 2
|-------------------------------------------------------|
|-7h8p7-6h7p6-5h6p5-7h8p7-6h7p6-7h8p7-6h7p6-5h6p5-8h9p8-|
|-------------------------------------------------------|

RIFF 3b x1 (0:58)
|-------------------------------------------------------|
|-------------------------------------------------------|GTR
|-------------------------------------------------------| 1
|-5h6p5-4h5p4-3h4p3-------------5h6p5-4h5p4-3h4p3-6h7p6-|
|-------------------------------------------------------|
|-------------------------------------------------------|

RIFF 3c x1 (1:01)
|-------------------------------------------------------|
|-------------------------------------------------------|GTR
|-------------------------------------------------------| 1
|-5h6p5-4h5p4-3h4p3-5h6p5-4h5p4-5h6p5-4h5p4-3h4p3-6h7p6-|
|-------------------------------------------------------|
|-------------------------------------------------------|

RIFF 4a x2 (1:07) (slide out on last)
|-------------------------------------------------------|
|-------------------------------------------------------|GTR
|-444444------------------------------------------------| 1
|--------555555-666666-333333-666666-222222-333333333333|
|-------------------------------------------------------|
|-------------------------------------------------------|

RIFF 4b x2 (1:07)
|-------------------------------------------------------|
|-------------------------------------------------------|GTR
|--------555555--------666666--------666666----------4--| 2
|-222222--------333333--------222222--------3--4h5h6----|
|-------------------------------------------------------|
|-------------------------------------------------------|

RIFF 5a x2 (1:18)
|------------------------------------------------------|
|------------------------------------------------------|GTRS
|------------------------------------------------------|1&2
|--2------33333-55555-66666--5------33333-55555-66666--|
|--2-------------------------5-------------------------|
|--0----0--------------------3----0--------------------|

RIFF 5b x2 (1:28)
|------------------------------------------------------|
|------------------------------------------------------|GTRS
|------------------------------------------------------|1&2
|---------33333-55555-66666---------33333-55555-66666--|
|------------------------------------------------------|
|-00000000------------------33333333-------------------|

Repeat RIFF 3a (GTR 2) and 3b (GTR 1) x1 (1:39)

Repeat RIFF 5b (GTRS 1&2) x2 (1:42)

Repeat RIFF 4a (GTR 1) and 4b (GTR 2) x4 (vibrato on last) (1:52)

RIFF 6a x2 (2:12)
|-----------------------------------------------------|
|-----------------------------------------------------|GTRS
|-----------------------------------------------------|1&2
|------555-666-----6-5-666-----666-555----------------|
|--888---------888---------888------------------------|
|--------------------------------------7777-6666-7777-|

Play RIFF 6c (GTR 1) and 6a (GTR 2) x1 (2:19)

RIFF 6c x1 (without ghost notes) (2:19)
|------------------------------------------------|
|------------------------------------------------|GTR
|------------------------------------------------| 1
|------------333333333---------------------------|
|----------------------333333333-2222-1111-2222--|
|--111111111---(111)-----------------------------|

Play RIFF 6b (GTR 1) and 6a (GTR 2) x2 (2:23)

RIFF 6b x2 (2:23)
|----------------------------------------------------|
|----------------------------------------------------|GTR
|----------------------------------------------------| 1
|-----777-888------8-7-888------888-777--------------|
|10///--------10///--------10///---------------------|
|--------------------------------------9999-8888-9999|

Repeat RIFF 6c (GTR 1) and 6a (GTR 2) x1 (2:30)

RIFF 7a x2 (2:33)
|-----------------------------------------------------|
|-----------------------------------------------------|GTRS
|-----------------------------------------------------|1&2
|----10----10----10-------------10----10----10--------|
|-77----77----77----5555555--77----77----77-----------|
|----------------------------------------------33333\-|

RIFF 8a x7 (2:43)
|-------------------------------|
|-------------------------------|GTR
|-------------------------------| 2
|------5~------------5~---------|
|-------------6~--------4~--3~--|
|--3-3----3-3----3-3------------|

RIFF 8b x6 (2:46)
|----------------------------------|
|----------------------------------|GTR
|----------------------------------| 1
|-----5555----------5555-----------|
|------------6666-------4444-3333--|
|--3-3----3-3----3-3---------------|

Repeat RIFF 7a (GTRS 1&2) x4 (w/ RIFF 7b on 3) (3:01)

RIFF 7b x1 (3:12)
|-----------------------------------------------------|
|---7-----7-----7--------------7-----7-----7----------|GTR
|44----44----44--------2t3--44----44----44------------| 1
|------------------3t4----------------------------3t4-|
|---------------------------------------------4t5-----|
|-----------------------------------------------------|

|-----------------------------------------------------|
|---7-----7-----7--------------7-----7----------------|GTR
|44----44----44--------2t3--44----44----44------------| 1
|------------------3t4---------------------3----3333--|
|--------------------------------------------6--------|
|-----------------------------------------------------|

BASS INTERLUDE x2 (3:21)
|--------------------------------------------------|
|--------------------------------------------------|BASS
|-----5-----------5-----------5-----------5--------|
|-----------6--------4--3-----------6--------4--3--|
|--3-----3-----3-----------3-----3-----3-----------|

SEGUE x1 (3:31)
|-----------------------------------------|--------|
|-----------------------------------------|--------|GTRS
|-----------------------------------------|--------|1&2
|-----------------------------------------|--------|
|-----------------------------------------|-12\----| 1
|-----------------------------------------|11b12\--| 2

Repeat RIFF 8a (GTR 2) and 8b (GTR 1) x2 (3:31)

RIFF 9a x1 (3:42)
|--------------------------------------------------|
|--------------------------------------------------|GTR
|-----(5)--(4)--(6)--(5)---4444-5555------3333-2222| 1
|-(3)--------------------------------0000----------|
|--3---3----2----4----3----------------------------|
|--1-----------------------------------------------|

RIFF 9b x1 (3:42)
|--------------------------------------------------|
|--------------------------------------------------|GTR
|-----(5)--(4)--(6)--(5)---------------------------| 2
|-(3)----------------------------------------------|
|--3---3----2----4----3---7777777775555555556666666|
|--1-----------------------------------------------|

RIFF 9c x1 (3:50)               Fill 1
|-----------------------------||-------|
|-----------------------------||-------|GTRS
|-----------4-5---------------||-------|1&2
|----4-5------------4-5--(4)--||--(3)--|
|--3------2------3--------4---||---3---|
|-------------------------2---||---1---|

Repeat RIFF 9a (GTRS 1) and 9b (GTR 1) x1 (3:53)

Repeat RIFF 9c (GTRS 1&2) x1 (w/ Fill 1) (4:00)

Repeat RIFF 6a (GTR 1) and 6d (GTR 2) x1 (4:04)

RIFF 6d x1 (4:06)
|-----------------------------------------------------|
|-----------------------------------------------------|GTR
|-----------------------------------------------------| 2
|------------------------------666-555----------------|
|--------------------------888------------------------|
|--------------------------------------7777-6666-7777-|

Repeat RIFF 6a (GTRS 1&2) x1 (4:08)

Repeat RIFF 6c (GTR 1) and 6a (GTR 2) x1 (4:11)

Repeat RIFF 6b (GTR 1) and 6a (GTR 2) x2 (4:15)

Repeat RIFF 6c (without ghost notes, GTR 1) and 6a (GTR 2) x1 (4:22)

Repeat RIFF 7a (GTRS 1&2) x2 (4:26)

RIFF 10a (4:36)
|-------------------------------------------|
|-----------------------------------777777--|GTR
|----------------------------666666---------| 1
|---------------------999999----------------|
|----------------5555-----------------------|
|--0-0-0-0--5555----------------------------|

|-------------------------------------------|
|------------------------------------66666--|GTR
|---------------------999999-888-999--------| 1
|-------------------------------------------|
|----------------5555-----------------------|
|--0-0-0-0--5555----------------------------|

RIFF 10b (4:36)
|-------------------------------------------|
|-------------------------------------------|GTR
|-------------------------------------------| 2
|---------------------33333333333333333333--|
|----------------5555-----------------------|
|--0-0-0-0--5555----------------------------|

|-------------------------------------------|
|-------------------------------------------|GTR
|-------------------------------------------| 2
|---------------------55555555553333333333--|
|----------------5555-----------------------|
|--0-0-0-0--5555----------------------------|

Repeat RIFF 5b x2 (GTR 1) and 5c x1 (4:46)

RIFF 5c x1 (4:46)
|------------------------------------------------------|
|------------------------------------------------------|GTR
|------------------------------------------------------| 2
|--2------------4------------5------------6------------|
|--2------------4------------5------------6------------|
|--0------------2------------3------------4------------|

|------------------------------------------------------|
|------------------------------------------------------|GTR
|------------------------------------------------------| 2
|--2------------4------------5------------6-----3------|
|--2------------4------------5------------6-----3------|
|--0------------2------------3------------4-----1------|

RIFF 5d x2 (4:55)
|---------------------------------------------------------|
|---------------------------------------------------------|GTR
|---------------------------------------------------------| 2
|-----------33333-55555-66666------------33333-55555-66666|
|---------------------------------------------------------|
|0-0000-0000------------------3-3333-3333-----------------|

Riff 5e x1 (swell in and fade out) (4:55)
|----------------------------|----------------------------|
|----------------------------|---------------------7~~~~~-|GTR
|--------------7~~~~~-8~~~~~-|7~~~~~-8~~~~~-7~~~~~--------| 3
|9~~~~~-10~~~~---------------|----------------------------|
|----------------------------|----------------------------|
|----------------------------|----------------------------|

Repeat RIFF 10a (GTR 1) and 10b (GTR 2) x2 (5:05)

Repeat RIFF 4a (GTR 1) and 4b (GTR 2) x3 (5:15)

RIFF 11a x4 (until fadeout) (5:30)
|---------------------|---------------------|
|---------------------|---------------------|GTR
|444444444444444444444|777777777777777777777| 1
|---------------------|---------------------|
|---------------------|---------------------|
|---------------------|---------------------|

|---------------------|---------------------|
|444444444444444444444|---------------------|GTR
|---------------------|555555555555555555555| 1
|---------------------|---------------------|
|---------------------|---------------------|
|---------------------|---------------------|

|---------------------|---------------------|
|---------------------|----------------6t7--|GTR
|---------------------|----------66666------| 1
|---------------------|4~~~~~~~~~-----------|
|---------------------|---------------------|
|111111111111111111111|---------------------|

|---------------------|---------------------|
|---------------------|---------------------|GTR
|---------------------|---------------------| 1
|777777777777777777777|---------------------|
|---------------------|888888888888888888888|
|---------------------|---------------------|

RIFF 11b x27 (until fadeout) (5:30)
|------------------------------------------|
|------------------------------------------|GTR
|------------------------------------------| 2
|--4444-5555-4444-5555-4444-5555-77777777--|
|------------------------------------------|
|------------------------------------------|

RIFF 11c x20 (until fadeout) (5:54)
|------------------------------------------|
|--3333-4444-3333-4444-3333-4444-66666666--|GTR
|------------------------------------------| 3
|------------------------------------------|
|------------------------------------------|
|------------------------------------------|

Augment BAR 6 of RIFF 11a on repeats as follows:

BAR 5-6 of RIFF 11a on 2 (6:09)
|---------------------|---------------------|
|---------------------|-------------666-----|GTR
|---------------------|----------666---6b7--| 1
|---------------------|4~~~~~~~~~---------4~|
|---------------------|---------------------|
|111111111111111111111|---------------------|

BAR 5-6 of RIFF 11a on 3 (6:32)
|---------------------|---------------------|
|---------------------|---------------------|GTR
|---------------------|----------4~~~~~~~~~~| 1
|---------------------|4~~~~~~~~~-----------|
|---------------------|---------------------|
|111111111111111111111|---------------------|

All instruments fade out.

-=-=-=-=-=-=-=-=-=-=-=-=-=-=-=-=-=-=-=-=-=-=-=-=-=-=-=-=-=-=-=-=-=-=-=-=-=-=-=-

  Visit MetalTabs.com for more metal tablature

bottom separator

Contact Us | Privacy Policy | Disclaimer | Legal Notice
Copyright © 2001-2014 MetalTabs.com. All Rights Reserved.