top separator

Home

Forum

What's New

Submit a Tab

FAQ

Links

Contact Us

Link to Us

MetalTabs.com logo

Bands

0-9

A

B

C

D

E

F

G

H

I

J

K

L

M

N

O

P

Q

R

S

T

U

V

W

X

Y

Z

Search

What

Where
 

Indesinence - "Catalepsy" Guitar Tab

Plain Text Version
More Indesinence Tabs

Hits: 1806
Updated: 2006-03-10 02:31:24

 

By:

sqol

sendpm.gif

email.gif

Important note
This tab is available online because we obtained explicit permission from Indesinence or their label.


#----------------------------------PLEASE NOTE---------------------------------#
#This file is the author's own work and represents their interpretation of the #
#song. You may only use this file for private study, scholarship, or research. #
#Unless specified otherwise, this is NOT an official tab from the band members.#
#------------------------------------------------------------------------------#

  Visit MetalTabs.com for more metal tablature
  
Band:   Indesinence
Album:  Ecstatic Lethargy
Song:   Catalepsy

Transcribed By: sqol/Oli
Date:           20022006
Email:          oli ( at ) dijit ( dot ) net


.  - palm mute           /  - slide up to
\  - slide down to       ~  - vibrato
h  - hammer on           b  - Bend
p  - pull off            Suffixes for bend
t  - tap                 f  - full bend    h - half bend
ph - pinched harmonic    q  - quarter bend t - tap bend
*  - see comment         ^  - Hold bend    r release bend
x  - Stuccatto           ~  - vibrato bend
,  - slight palm mute    () - ghost note, sustained note
"  - tremolo note        <> - Trill

Tuning C F Bb Eb G C

[riff1] x2
|----------------------0-------------0--------------------------0--|
|---------------------0----------------0-----------------------0---|
|--------------------0-------------------0--------------------0----|
|--3-2--...--3-2---(2)----3--3/6--6---------3-2--...--3-2---(2)----|
|--3-2--222--3-2--(2)-----3--3/6--6---------3-2--222--3-2--(2)-----|
|--1-0--000--1-0----------1--1/4--4---------1-0--000--1-0----------|
        xxx                                      xxx

|-------------------|
|-------------------|
|-------------------|
|-------------------|
|-------------------|
|--3--3-3/6-6-65-0--|
|                   |
|-------------------|
|-------------------|
|-------------------|
|-------------------|
|--1--1-1/5-5-53-3--|
|-------------------|

[riff2]
|----------------------0----------------------------------------0--|
|---------------------0----------------------------------------0---|
|--------------------0---------8--8---------------------------0----|
|--3-2--...--3-2---(2)----3--3/8--8---------3-2--...--3-2---(2)----|
|--3-2--222--3-2--(2)-----3--3/6--6---------3-2--222--3-2--(2)-----|
|--1-0--000--1-0----------1--1--------------1-0--000--1-0----------|
        xxx                                      xxx

|-------------|
|-------------|
|----------0--|
|-------------|
|--3--3/6-----|
|--1--1/4-----|
|             |
|-------------|
|-------------|
|----------3--|
|-------------|
|--3--3/6-----|
|--1--1/4-----|

|----------------------0----------------------------------------------|
|---------------------0-----------------------------------------------|
|--------------------0---------8--8-----------------------------------|
|--3-2--...--3-2---(2)----3--3/8--8---------3-2--...--3-2--3--3/6--6--|
|--3-2--222--3-2--(2)-----3--3/6--6---------3-2--222--3-2--3--3/6--6--|
|--1-0--000--1-0----------1--1--------------1-0--000--1-0--1--1/4--4--|
        xxx                                      xxx

[riff3]
|----------------------------------------|
|----------------------------------------|
|----------------------------------------|
|--7--7--7/66-6-6------------------------|
|--5--5--5/44-4-48--8--8/7--7--7/5--5-5--|
|----------------6--6--6/5--5--5/3--3-3--|

|----------------------------------------|
|----------------------------------------|
|----------------------------------------|
|--7--7--7/99-9-9------------------------|
|--5--5--5/77-7-78--8--8/7--7--7/5--5-5--|
|----------------6--6--6/5--5--5/3--3-3--|

|----------------------------------------|
|----------------------------------------|
|----------------------------------------|
|--7--7--7/66-6-6------------------------|
|--5--5--5/44-4-48--8--8/7--7--7/5--5-5--|
|----------------6--6--6/5--5--5/3--3-3--|

|------------------|
|------------------|
|------------------|
|------------------|
|--5--5/7\4--5--7--|
|--3--3/5\2--3--5--|


[riff4]Too awkward to tab out, but the order is: 1,2,1,3,1,2,1,3
   1       2       3
|-----| |-----| |-----|
|-----| |-----| |-----|
|-----| |-----| |-----| * 2 and 3 are bent about 1/4 tone up slowly
|-----| |-----| |-----|
|--2--| |--4--| |--6--|
|--0--| |--2--| |--4--|

repeat riff3, then riff4

[riff5]x2 break, let all notes ring
|------0--------0--------0--------0--------0--------0--------0--------0-----|
|----0--0-0---0--0-0---0--0-0---0--0-0---0--0-0---0--0-0---0--0-0---0--0-0--|
|---0-0--0---0-0--0---0-0--0---0-0--0---0-0--0---0-0--0---0-0--0---0-0--0---|
|---------------------------------------------------------------------------|
|--3-----------------3------------------------------------------------------|
|-----------4-----------------4--------2--------4--------2--------4---------|

[riff6]
|------------------------------------------------------------------|
|------------------------------------------------------------------|
|------------------------------------------------------------------|
|--5-5-55----------5-5-55------------------------------------------|
|--3-3-33--6-6-66--3-3-33--6-6-66--4-4-44--6-6-66--4-4-44--6-6-66--|
|----------4-4-44----------4-4-44--2-2-22--4-4-44--2-2-22--4-4-44--|

|------------------------------------------------------------------|
|------------------------------------------------------------------|
|------------------------------------------------------------------|
|--5-5-55----------5-5-55------------------------------------------|
|--3-3-33--6-6-66--3-3-33--6-6-66--4-4-44--6-6-66--4-4-44--2-2-22--|
|----------4-4-44----------4-4-44--2-2-22--4-4-44--2-2-22--0-0-00--|

[riff7] x2
|-------------------------------------------------------|----------------------|
|-------------------------------------------------------|----------------------|
|-------------------------------------------------------|----------------------|
|------9-8-8h9-----9-8-8h9----9b10-8-8h9----------------|--------12/14\12\-10--|
|--------------------------------------------9-10-10p9--|-7-9-10---------------|
|--0-----------0-----------0--------------0-------------|----------------------|
^2nd time only

[riff8]repeat
|--------------------------------------------------------|
|--------------------------------------------------------|
|--------------------------------------------------------|
|-----10-9-9-7/9-9-10p9h10p9-----10-9-9-9------12----12--|
|--2--------------------------2----------10-10----10-----|
|--0--------------------------0--------------------------|

|----------------------------------------------------|
|----------------------------------------------------|
|----------------------------------------------------|
|-----10-9-9-7/9-9-10p9h10p9-----10-9-9-9--------12--|
|--2--------------------------2----------10-10---10--|
|--0--------------------------0------------------0---|


repeat riff6, but occasionally ring the top 3 open strings


[riff9]
|--------------------------------------------------------------|
|--------------------------------------------------------------|
|--------------------------------------------------------------|
|--------------------------------------------------------------|
|--------------------------------------------------------------|
|--0---0--8------0---0--8------6---6---8bq------6---6bh---1bq--|
|                                                              | the last note
|--------------------------------------------------------------| should be bent
|--------------------------------------------------------------| out of sync
|--------------------------------------------------------------| with the other
|--------------------------------------------------------------| guitar
|--------------------------------------------------------------|
|--7---7--4------7---7--4------2---2---4bq------2---2bh---1bq--|


[riff10]
|-----|--------------------------------------------------------|
|-----|--------------------------------------------------------|
|-----|--------------------------------------------------------|
|--2--|--2--3--5--6----2--4--5--3----2--3--5--6----2--4--5--3--|
|--2--|--2--3--5--6----2--4--5--3----2--3--5--6----2--4--5--3--|
|--0--|--0--1--3--4----0--2--3--1----0--1--3--4----0--2--3--1--|


[riff11]
|----0--0--0----0--0--0--0----0--0--0--0---0---0--0--0---|
|----0--0--0---0---0--0--0---0---0--0--0--0----0--0--0---|
|---0--0--0---0---0--0--0---0---0--0--0--0----0--0--0----|
|--2--3--5--6----2--4--5--3----2--3--5--6----2--4--5--3--|
|--2--3--5--6----2--4--5--3----2--3--5--6----2--4--5--3--|
|--0--1--3--4----0--2--3--1----0--1--3--4----0--2--3--1--|

[riff12]
|--------------------------------------|
|--------------------------------------|
|--------------------------------------|
|--2-----3---5-6---2-----4---5-5--3-3--|
|--2-----3---5-6---2-----4---5-5--3-3--|
|--0-000-1-1-3-4---0-000-2-2-3-3--1-1--|
     ...   .         ...   .

[riff13]
|------------------------------------------|
|------------------------------------------|
|------------------------------------(12)--|
|--2--3--5--6---10-9h10p9---------12-------|
|--2--3--5--6-------------10-9-10----------|
|--0--1--3--4------------------------------|

|---------------------------------------|
|---------------------------------------|
|---------------10-9h10p9----8-7h8p7----|
|--2--4--5--3-------------10---------8--|
|--2--4--5--3---------------------------|
|--0--2--3--1---------------------------|

|------------------------------------------|
|------------------------------------------|
|------------------------------------(12)--|
|--2--3--5--6---10-9h10p9---------12-------|
|--2--3--5--6-------------10-9-10----------|
|--0--1--3--4------------------------------|

|---------------------------------------| |-----------------|
|---------------------------------------| |-----------------|
|---------------10-9h10p9----8-7h8p7----| |-----------------|
|--2--4--5--3-------------10---------8--| |--3-2--...--3-2--|
|--2--4--5--3---------------------------| |--3-2--222--3-2--|
|--0--2--3--1---------------------------| |--1-0--000--1-0--|
                                                  xxx

END

  Visit MetalTabs.com for more metal tablature

bottom separator

Contact Us | Privacy Policy | Disclaimer | Legal Notice
Copyright © 2001-2014 MetalTabs.com. All Rights Reserved.