top separator

Home

Forum

What's New

Submit a Tab

FAQ

Links

Contact Us

Link to Us

MetalTabs.com logo

Bands

0-9

A

B

C

D

E

F

G

H

I

J

K

L

M

N

O

P

Q

R

S

T

U

V

W

X

Y

Z

Search

What

Where
 

Lacrimas Profundere - "The Nothing-ship" Bass Tab

Plain Text Version
More Lacrimas Profundere Tabs

Hits: 1688
Updated: 2006-03-10 02:30:40

 

By:

GeCkO

sendpm.gif

email.gif

Important note
This tab is available online because we obtained explicit permission from Lacrimas Profundere or their label.


#----------------------------------PLEASE NOTE---------------------------------#
#This file is the author's own work and represents their interpretation of the #
#song. You may only use this file for private study, scholarship, or research. #
#Unless specified otherwise, this is NOT an official tab from the band members.#
#------------------------------------------------------------------------------#

  Visit MetalTabs.com for more metal tablature
  
Band:  Lacrimas Profundere
Album: Fall, I will follow (2002)
Song:  Nothing ship
Tabbed by: Gecko ( gecko@osopanda.com )
5 string bass standard tunning (BEADG)

Copyright (c)  (Napalm Records (USA)) (2002)
Version 1.0 - (19/02/2006)

Please comment

Verse
G|------------------------------------------------------------------|
D|------------------------------------------------------------------|
A|------------------------------------------------------------------|
E|----------------------------------1-1-11--1-1-11--4-4-44--4-4-4---|
B|--4-4-44--4-4-44--4-4-44--4-4-44----------------------------------|

G|-----------|
D|-----------|
A|-----------|
E|-44444444--|
B|-----------|

Chorus
G|------------------------------------------------------------------|
D|------------------------------------------------------------------|
A|------------------------------------------------------------------|
E|--3-333-333--3-333-333--3-333-333--3-333-333----------------------|
B|----------------------------------------------4-444-444-4-444-444-|

G|------------------------|
D|------------------------|
A|------------------------|
E|------------------------|
B|--3-333-333--6-666-666--|

End chorus 2    Interlude
G|-----|        G|------|
D|-----|        D|------|
A|-----|        A|------|
E|-0*--|        E|--12/-|
B|-----|        B|------|

END
G|-----|
D|-----|
A|-----|
E|-0*--|
B|-----|

  Visit MetalTabs.com for more metal tablature

bottom separator

Contact Us | Privacy Policy | Disclaimer | Legal Notice
Copyright © 2001-2014 MetalTabs.com. All Rights Reserved.