top separator

Home

Forum

What's New

Submit a Tab

FAQ

Links

Contact Us

Link to Us

MetalTabs.com logo

Bands

0-9

A

B

C

D

E

F

G

H

I

J

K

L

M

N

O

P

Q

R

S

T

U

V

W

X

Y

Z

Search

What

Where
 

Machetazo - "Monasterio De Bouzano" Guitar Tab

Plain Text Version
More Machetazo Tabs

Hits: 2034
Rated: 4.50 out of 5 (2 votes)
Updated: 2006-03-10 02:29:22

 

By:

[Nocturno_Culto]

sendpm.gif

email.gif

Important note
This tab is available online because we obtained explicit permission from Machetazo or their label.


#----------------------------------PLEASE NOTE---------------------------------#
#This file is the author's own work and represents their interpretation of the #
#song. You may only use this file for private study, scholarship, or research. #
#Unless specified otherwise, this is NOT an official tab from the band members.#
#------------------------------------------------------------------------------#

  Visit MetalTabs.com for more metal tablature
  
Band:  Machetazo
Album: Sinfonias Del Terror Ciego
Song:  Monasterio De Berzano


Transcribed By: [Nocturno_Culto]
Email: Slash_6661@hotmail.com


.  - palm mute           /  - slide up to
\  - slide down to       ~  - vibrato
h  - hammer on           b  - Bend
p  - pull off            Suffixes for bend
t  - tap                 f  - full bend    h - half bend
ph - pinched harmonic    q  - quarter bend t - tap bend
*  - see comment         ^  - Hold bend    r release bend
x  - Stuccatto           ~  - vibrato bend
,  - slight palm mute    () - ghost note, sustained note
"  - tremolo note        <> - Trill

Tuning B E A D F# B

|-------------------------------|
|-------------------------------|
|-------------------------------|
|-------------------------------|
|-5/4\5---2------5/4\5---3------|x2
|-3/2\3---0------3/2\3---1------|

|-----------------------------------------------------|
|-----------------------------------------------------|
|-----------------------------------------------------|
|-----------------------------------------------------|
|-5/4\5--2------2----2------5/4\5---3------3----3-----|x2
|-3/2\3--0--0-0-0--0-0--0-0-3/2\3---1--1-1-1--1-1--1-1|
            . .    .    . .            . .    .    . .

|-------|
|-------|
|-------|
|-------|
|-5/4\5-|
|-3/2\3-|

|-----------------|
|-----------------|
|-----------------|
|-----------------|
|-2---8\7/8\7/8\7-|x4
|-0---6\5/6\5/6\5-|
  .

|------------------------------------------|
|------------------------------------------|
|------------------------------------------|
|------------------------------------------|
|-2----5----4------------------------------|x3
|-0--------------5----6----5----3----5--3--|
  "    "    "    "    "    "    "    "  "

|--------------------------------------|
|--------------------------------------|
|--------------------------------------|
|--------------------------------------|
|-2----5----4-------------------5-7----|
|-0--------------5----6----5----3-5----|
  "    "    "    "    "    "
|------------------------------------------|
|------------------------------------------|
|------------------------------------------|
|------------------------------------------|
|-2----5----4------------------------------|x3
|-0--------------5----6----5----3----5--3--|
  "    "    "    "    "    "    "    "  "

|--------------------------------------|
|--------------------------------------|
|--------------------------------------|
|--------------------------------------|
|-2----5----4-------------------5-7----|
|-0--------------5----6----5----3-5----|
  "    "    "    "    "    "

|-----------------|
|-----------------|
|-----------------|
|-----------------|
|-2---8\7/8\7/8\7-|x4
|-0---6\5/6\5/6\5-|
  .

|------------------------------------------|
|------------------------------------------|
|------------------------------------------|
|------------------------------------------|
|-2----5----4------------------------------|x3
|-0--------------5----6----5----3----5--3--|
  "    "    "    "    "    "    "    "  "

|--------------------------------------|
|--------------------------------------|
|--------------------------------------|
|--------------------------------------|
|-2----5----4-------------------5-7----|
|-0--------------5----6----5----3-5----|
  "    "    "    "    "    "

|-----------------|
|-----------------|
|-----------------|
|-----------------|
|-2---8\7/8\7/8\7-|x4
|-0---6\5/6\5/6\5-|
  .
|-------------|
|-------------|
|-------------|
|-------------|
|-8\7/8\7/8\7-|x4
|-6\5/6\5/6\5-|

|-----------------------------------------------|
|-----------------------------------------------|
|-----------------------------------------------|
|-7---------------------------------------------|
|-5--------6----5--------3--------6----5--------|x4
|----------4----3--------1--------4----3--------|
  "        "    "        "        "    "

|-----------------|
|-----------------|
|-----------------|
|-----------------|
|-2---8\7/8\7/8\7-|x2
|-0---6\5/6\5/6\5-|

|-------------|
|-------------|
|-------------|
|-------------|
|-8\7/8\7/8\7-|x4
|-6\5/6\5/6\5-|

|---|
|---|
|---|
|---|
|-2-|
|-0-|

END

  Visit MetalTabs.com for more metal tablature

bottom separator

Contact Us | Privacy Policy | Disclaimer | Legal Notice
Copyright © 2001-2014 MetalTabs.com. All Rights Reserved.