top separator

Home

Forum

What's New

Submit a Tab

FAQ

Links

Contact Us

Link to Us

MuSpy.com

MetalTabs.com logo

Bands

0-9

A

B

C

D

E

F

G

H

I

J

K

L

M

N

O

P

Q

R

S

T

U

V

W

X

Y

Z

Search

What

Where
 

Acid Bath - "Cassie Eats Cockaroaches" Guitar Tab

Plain Text Version
More Acid Bath Tabs

Hits: 2588
Updated: 2006-02-22 04:35:55

 

By:

sendpm.gif

email.gif

Important note
We did our best to reach Acid Bath and ask for their permission to publish this tab. Unfortunately they did not respond to our requests or we could not find a way to contact them. This tab is available online until Acid Bath tells us to take it down.


#----------------------------------PLEASE NOTE---------------------------------#
#This file is the author's own work and represents their interpretation of the #
#song. You may only use this file for private study, scholarship, or research. #
#Unless specified otherwise, this is NOT an official tab from the band members.#
#------------------------------------------------------------------------------#

  Visit MetalTabs.com for more metal tablature
  
Band:  (Acid Bath)
Album: (When the Kite String Pops)
Song:  (Cassie eats Cockroaches)

Copyright (c)  (Rotten Records) (1994)


Transcribed By: (Broken_Computer)
Email:          (Meltthemoon@aol.com)


.  - palm mute
~  - vibrato      /  - slide
h  - hammer on    b  - Bend
p  - pull off

Tuning A# F A# D# G C

|-------------------------------------------------------|
|-------------------------------------------------------|
|-------------------------------------------------------|
|-------------------------------------------------------|
|-------------------------------------------------------|
|-0-0-3p0-0-0-3p0-0-0-3p0-2b-0-0-3p0-0-0-3p0-0-0-3p0-2b-|

|------------------------------------------------------|
|------------------------------------------------------|
|------------------------------------------------------|
|------------------------------------------------------|
|----------------------------------------------------2-|
|-0-0-3p0-0-0-3p0-0-0-3p0-2b-0-0-3p0-0-0-3p0-0-0-3p0-2-|

|-----------------------------------------------------------|
|-----------------------------------------------------------|
|-----------------------------------------------------------|
|-----------------------------------------------------------|
|-------------------------6-5-------------------------2-2-2-|
|-0-0-3p0-0-0-3p0-0-0-3p0-6-5-0-0-3p0-0-0-3p0-0-0-3p0-2-2-2-|

|-----------------------------------------------------|
|-----------------------------------------------------|
|-----------------------------------------------------|
|-----------------------------------------------------|
|----------------------6-5----------------------2-2-2-|
|-0-0333-0-0333-0-0333-6-5-0-0333-0-0333-0-0333-2-2-2-|
  . .... . .... . ....     . .... . .... . ....

|-------------------------------------------------------|
|-------------------------------------------------------|
|-------------------------------------------------------|
|-------------------------------------------------------|
|-------------------------------------------------------|
|-0-0-3p0-0-0-3p0-0-0-3p0-2b-0-0-3p0-0-0-3p0-0-0-3p0-2b-|

|-------------------------------------------------------|
|-------------------------------------------------------|
|-------------------------------------------------------|
|-------------------------------------------------------|
|-------------------------------------------------------|
|-0-0-3p0-0-0-3p0-0-0-3p0-2b-0-0-3p0-0-0-3p0-0-0-3p0-2b-|

|-----------------------------------------------------------|
|-----------------------------------------------------------|
|-----------------------------------------------------------|
|-----------------------------------------------------------|
|-------------------------6-5-------------------------2-2-2-|
|-0-0-3p0-0-0-3p0-0-0-3p0-6-5-0-0-3p0-0-0-3p0-0-0-3p0-2-2-2-|

|-----------------|---------------------------|
|-----------------|---------------------------|
|-------x3--------|---------------------------|
|-----------------|---------------------------|
|-3-3-3-5-3-3-6-5-|-3-3-3-5-3-3-6-5-3/8888888-|
|-3-3-3-5-3-3-6-5-|-3-3-3-5-3-3-6-5-3/8888888-|
  . . . . . . . .   . . . . . . . .

That's all I have thus far

  Visit MetalTabs.com for more metal tablature

bottom separator

Contact Us | Privacy Policy | Disclaimer | Legal Notice
Copyright © 2001-2014 MetalTabs.com. All Rights Reserved.