top separator

Home

Forum

What's New

Submit a Tab

FAQ

Links

Contact Us

Link to Us

MetalTabs.com logo

Bands

0-9

A

B

C

D

E

F

G

H

I

J

K

L

M

N

O

P

Q

R

S

T

U

V

W

X

Y

Z

Search

What

Where
 

Siebenbürgen - "Destination Supremacy" Guitar Tab

Plain Text Version
More Siebenbürgen Tabs

Hits: 1990
Updated: 2006-02-22 04:34:42

 

By:

sendpm.gif

email.gif

Important note
This tab is available online because we obtained explicit permission from Siebenbürgen or their label.


#----------------------------------PLEASE NOTE---------------------------------#
#This file is the author's own work and represents their interpretation of the #
#song. You may only use this file for private study, scholarship, or research. #
#Unless specified otherwise, this is NOT an official tab from the band members.#
#------------------------------------------------------------------------------#

  Visit MetalTabs.com for more metal tablature
  
Band:  Siebenbürgen
Album: Plagued Be Thy Angel
Song:  Destination Supremacy

Copyright (c)  Napalm Records 2001
Version 1.0 - 2/14/2006

Transcribed By: Jon Miniscalco
Email:          Morbiddeath123@aol.com


Tablature Legend
----------------
 h   - hammer-on
 p   - pull-off
 b   - bend
 pb  - pre-bend
 r   - bend release (if no number after the r, then release immediately)
 /\  - slide into or out of (from/to "nowhere")
 s   - legato slide
 S   - shift slide
<n> - natural harmonic
[n]  - artificial harmonic
n(n) - tapped harmonic
 ~   - vibrato
 tr  - trill
 T   - tap
 TP  - trem. picking
 PM  - palm muting
\n/  - tremolo bar dip; n = amount to dip
 \n  - tremolo bar down
 n/  - tremolo bar up
/n\  - tremolo bar inverted dip
 =   - hold bend; also acts as connecting device for hammers/pulls
 <> - volume swell (louder/softer)
 x   - on rhythm slash represents muted slash
 o   - on rhythm slash represents single note slash

Misc Legend
-----------
 |  - bar
||  - double bar
||o - repeat start
o|| - repeat end
*|  - double bar (ending)
 :  - bar (freetime)
 $  - Segno
 &  - Coda
Tempo markers - <E/E./Q/Q./H/H.> = BPM(8/16=s8/s16),
where s8 = swing 8ths, s16 = swing 16ths


Gtr I (E A D G B E)

 H.=53
  6/4
   Gtr I
   W.              W.              W.              W.
||---------------|---------------|---------------|-------|
||---------------|---------------|---------------|-------|
||---------------|---------------|---------------|-------|
||---------------|---------------|---------------|-------|
||---------------|---------------|---------------|-------|
||---------------|---------------|---------------|-------|


  PM-------------------------------------------------
  E E E E E E E E E E E E   E E E E E E E E E E E E
|-------------------------|-------------------------|
|-------------------------|-------------------------|
|-------------------------|-------------------------|
|-------------------------|-------------------------|
|-0-0-0-0-0-0-0-0-0-0-0-0-|-0-0-0-0-0-0-0-0-0-0-0-0-|
|-------------------------|-------------------------|


 -------------------------------------------------|
  E E E E E E E E E E E E   E E E E E E E E E E E E
|-------------------------|----------------------------|
|-------------------------|----------------------------|
|-------------------------|----------------------------|
|-------------------------|----------------------------|
|-0-0-0-0-0-0-0-0-0-0-0-0-|-0-0-0-0-0-0-0-0-0-0-0-0----|
|-------------------------|----------------------------|


    W        +E  Q.      W.              W        +E   Q.     W.
||--------------------|----------------|--------------------|--------||
||o-------------------|----------------|--------------------|-------o||
||--------------------|----------------|--------------------|--------||
||--7--------(7)-9----|-10-------------|-7--------(7)-10----|-9------||
||o-0--------(0)-0----|--0-------------|-0--------(0)--0----|-0-----o||
||--------------------|----------------|--------------------|--------||


      PM|   PM|   PM|            PM|    PM|    PM|    PM
    E E E E E E E E E E E E    E E E  E E E  E E E  E E  E
||--------------------------|------------------------------|
||o-------------------------|------------------------------|
||--------------------------|------------------------------|
||--7-----7-----7-----9-9-9-|-10-----10-----10-----10---10-|
||o-0-0-0-0-0-0-0-0-0-0-0-0-|--0-0-0--0-0-0--0-0-0--0-0--0-|
||--------------------------|------------------------------|


    PM|   PM|   PM|              PM|   PM|   PM|   PM
  E E E E E E E E E  E  E  E   E E E E E E E E E E E E
|----------------------------|-----------------------------||
|----------------------------|----------------------------o||
|----------------------------|-----------------------------||
|-7-----7-----7-----10-10-10-|-9-----9-----9-----9---9-----||
|-0-0-0-0-0-0-0-0-0--0--0--0-|-0-0-0-0-0-0-0-0-0-0-0-0----o||
|----------------------------|-----------------------------||


    W        +Q   E E   W        +Q   E E
||--------------------|-------------------|
||o-------------------|-------------------|
||--------------------|-------------------|
||--3--------(3)--3-3-|-3--------(3)--3-3-|
||o-3--------(3)--3-3-|-3--------(3)--3-3-|
||--1--------(1)--1-1-|-1--------(1)--1-1-|


  W        +Q   E E   W        +E  Q.
|-------------------|---------------------||
|-------------------|--------------------o||
|-------------------|---------------------||
|-2--------(2)--2-2-|-2--------(2)-2------||
|-2--------(2)--2-2-|-2--------(2)-2-----o||
|-0--------(0)--0-0-|-0--------(0)-0------||


      PM|   PM|   PM|           PM|   PM--|
    E E E E E E E E E E E E   E E E E E E E E E E E E
||--------------------------|-------------------------|
||o-------------------------|-------------------------|
||--------------------------|-------------------------|
||--------------------------|-------------------------|
||o-7-----7-----8-----8-8-8-|-8-----8-------8-7-5-7-8-|
||--5-5-5-5-5-5-5-5-5-5-5-5-|-6-6-6-6-6-6-6-6-6-6-6-6-|


    PM|   PM|   PM|   PM|        PM------|
  E E E E E E E E E E E E   Q.   E S S S S H.
|-------------------------|-----------------------||
|-------------------------|----------------------o||
|-------------------------|-----------------------||
|-------------------------|-----------------------||
|-7-----7-----5-----7-----|-8--------------8-----o||
|-5-5-5-5-5-5-3-3-3-5-5-5-|-6----6-6-6-6-6-6------||


  TPTPTPTPTPTPTPTPTPTPTPTP  TPTPTPTPTPTPTPTPTPTPTPTP
  E E E E E E E E E E E E   E E E E E E E E E E E E
|-------------------------|-------------------------|
|-------------------------|-------------------------|
|-------------------------|-------------------------|
|-------------------------|-------------------------|
|-------------------------|-3-3-3-3-3-3-3-3-3-3-3-3-|
|-1-1-1-1-1-1-1-1-1-4-4-4-|-------------------------|


  TPTPTPTPTPTPTPTPTPTPTPTP  TPTPTPTPTPTPTPTPTPTPTPTP
  E E E E E E E E E E E E   E E E E E E E E E E E E
|-------------------------|----------------------------|
|-------------------------|----------------------------|
|-------------------------|----------------------------|
|-------------3-3-3-------|----------------------------|
|-------------------4-4-4-|-3-3-3-3-3-3-3-3-3-3-3-3----|
|-1-1-1-1-1-1-------------|----------------------------|


  E E E E E E E E E E E E   E E E E E E E E E E E E
|-------------------------|-------------------------|
|-------------------------|-------------------------|
|-------------------------|-------------------------|
|-6-6-6-6-6-6-6-6-6-6-6-6-|-5-5-5-5-5-5-3-3-3-3-3-3-|
|-4-4-4-4-4-4-4-4-4-4-4-4-|-4-4-4-4-4-4-4-4-4-4-4-4-|
|-------------------------|-------------------------|


  E E E E E E E E E E E E   Q.   Q.   Q.   Q.
|-------------------------|----------------------|
|-------------------------|----------------------|
|-------------------------|----------------------|
|-5-5-5-5-5-5-5-5-5-5-5-5-|-5----3---------------|
|-3-3-3-3-3-3-3-3-3-3-3-3-|-3----1----5----6-----|
|-------------------------|-----------3----4-----|


    W        +E  E E E   W.
||---------------------|---------------|
||o--------------------|---------------|
||---------------------|---------------|
||---------------------|---------------|
||o-7--------(7)-7-8-7-|-5-------------|
||--5--------(5)-5-5-5-|-5-------------|


                            PM--|      PM--|
  W        +E  E E E   Q.   E E E Q.   E E E
|--------------------|--------------------------|
|--------------------|--------------------------|
|--------------------|--------------------------|
|--------------------|--------------------------|
|-3--------(3)-3-5-3-|-3----------2-------------|
|-5--------(5)-5-5-5-|-1----1-1-1-1----1-1-1----|


                                     PM|
  W        +E  E E E   W        +Q   E E
|--------------------|-------------------|
|--------------------|-------------------|
|--------------------|-------------------|
|-4--------(4)-4-5-4-|-------------------|
|-2--------(2)-2-2-2-|-2--------(2)------|
|--------------------|-3--------(3)--3-3-|


                      1.                  2.
                PM|
  W        +Q   E E   H.      H.           H.      E H    E
|-------------------|------------------||-------------------|
|-------------------|-----------------o||-------------------|
|-------------------|------------------||-------------------|
|-------------------|------------------||-------------------|
|-2--------(2)------|-2-------1-------o||--2-------1--------|
|-3--------(3)--3-3-|-3-------2--------||--3-------2--------|


      PM|   PM|   PM|            PM|    PM|    PM|    PM
    E E E E E E E E E E E E    E E E  E E E  E E E  E E  E
||--------------------------|------------------------------|
||o-------------------------|------------------------------|
||--------------------------|------------------------------|
||--7-----7-----7-----9-9-9-|-10-----10-----10-----10---10-|
||o-0-0-0-0-0-0-0-0-0-0-0-0-|--0-0-0--0-0-0--0-0-0--0-0--0-|
||--------------------------|------------------------------|


    PM|   PM|   PM|              PM|   PM|   PM|   PM
  E E E E E E E E E  E  E  E   E E E E E E E E E E E E
|----------------------------|-----------------------------||
|----------------------------|----------------------------o||
|----------------------------|-----------------------------||
|-7-----7-----7-----10-10-10-|-9-----9-----9-----9---9-----||
|-0-0-0-0-0-0-0-0-0--0--0--0-|-0-0-0-0-0-0-0-0-0-0-0-0----o||
|----------------------------|-----------------------------||


    E E E E E E E E E E E E   E E E E E E E E E E E E
||--------------------------|-------------------------|
||o-------------------------|-------------------------|
||--------------------------|-------------------------|
||--5-5-5-5-5-5-5-5-5-5-5-5-|-6-6-6-6-6-6-6-6-6-6-6-6-|
||o-3-3-3-3-3-3-3-3-3-3-3-3-|-3-3-3-3-3-3-3-3-3-3-3-3-|
||--------------------------|-------------------------|


  E E E E E E E E E E E E   H.      H.
|-------------------------|----------------||
|-------------------------|---------------o||
|-------------------------|----------------||
|-5-5-5-5-5-5-6-6-6-5-5-5-|-6-------5------||
|-3-3-3-3-3-3-3-3-3-3-3-3-|-8-------8-----o||
|-------------------------|----------------||


    E E E E E E E E E E E E   E E E E E E E E E E E E
||--------------------------|-------------------------|
||o-------------------------|-------------------------|
||--------------------------|-------------------------|
||--8-8-8-8-8-8-8-8-8-8-8-8-|-9-9-9-9-9-9-9-9-9-9-9-9-|
||o-6-6-6-6-6-6-6-6-6-6-6-6-|-6-6-6-6-6-6-6-6-6-6-6-6-|
||--------------------------|-------------------------|


  E E E E E E E E E E E E   H.      H.
|-------------------------|----------------||
|-------------------------|---------------o||
|-------------------------|----------------||
|-8-8-8-8-8-8-9-9-9-8-8-8-|----------------||
|-6-6-6-6-6-6-6-6-6-6-6-6-|-6-------5-----o||
|-------------------------|-7-------6------||

and thats it..............

  Visit MetalTabs.com for more metal tablature

bottom separator

Contact Us | Privacy Policy | Disclaimer | Legal Notice
Copyright © 2001-2014 MetalTabs.com. All Rights Reserved.