top separator

Home

Forum

What's New

Submit a Tab

FAQ

Links

Contact Us

Link to Us

MuSpy.com

MetalTabs.com logo

Bands

0-9

A

B

C

D

E

F

G

H

I

J

K

L

M

N

O

P

Q

R

S

T

U

V

W

X

Y

Z

Search

What

Where
 

Graveworm - "Losing My Religion (REM Cover)" Guitar Tab

Plain Text Version
More Graveworm Tabs

Hits: 11808
Rated: 5.00 out of 5 (7 votes)
Updated: 2006-02-22 04:07:38

 

By:

sendpm.gif

email.gif

Important note
This tab is available online because we obtained explicit permission from Graveworm or their label.


#----------------------------------PLEASE NOTE---------------------------------#
#This file is the author's own work and represents their interpretation of the #
#song. You may only use this file for private study, scholarship, or research. #
#Unless specified otherwise, this is NOT an official tab from the band members.#
#------------------------------------------------------------------------------#

  Visit MetalTabs.com for more metal tablature
  
Band: Graveworm
Album: Engraved In Black
Song:  Losing My Religion (R.E.M cover)

Copyright (c)  Nuclearblast, 2003

Transcribed By: Leslie Almonte
Email:  Saiyensk8er@hotmail.com


.  - palm mute           /  - slide up to
\  - slide down to       ~  - vibrato
h  - hammer on           b  - Bend
p  - pull off            Suffixes for bend
t  - tap                 f  - full bend    h - half bend
ph - pinched harmonic    q  - quarter bend t - tap bend
*  - see comment         ^  - Hold bend    r release bend
x  - Stuccatto           ~  - vibrato bend
,  - slight palm mute    () - ghost note, sustained note
"  - tremolo note        <> - Trill

Tabbed By Leslie Almonte
Email: Saiyensk8er@hotmail.com

Tunning:B (B-E-A-D-F#-B)


  Riff 1
|------------------------------|------|
|------------------------------|------|
|------------------------------|------|
|-3-----------3/5-5/7-7--------|--5---|
|-3-----------3/5-5/7-7--------|--5---|
|-1-----------1/3-3/5-5--------|--3---|


 Riff 2: Play this twice 2X
|----------------------------------------|
|----------------------------------------|
|----------------------------------------|
|-----------101010107777--------99995555-|
|------77777----------------7777---------|
|-55555-----------------0000-------------|
  ....                  ....

Then finish with this
|-----------------------------------------------|
|-----------------------------------------------|
|-----------------------------------------------|
|----------101010107777--------9999101010109999-|
|------7777----------------7777-----------------|
|-55555----------------0000---------------------|
  .....                ....


  Riff 3: Play each twice 2x
|---------------------|----------------------|
|---------------------|----------------------|
|---------------------|----------------------|
|-7-------7-----7-----|-5-------5-----5------|
|-7-------7-----7-----|-5-------5-----5------|
|-5--5555-5-555-5-555-|-3--3333-3-333-3-333--|
     ....   ...   ...      ....   ...   ...

  Riff 4
|----------------------------------------------------------------
|----------------------------------------------------------------
|----------------------------------------------------------------
|-10--10\7-7---10--10--9\5-5---/10-10--9\7-7---10--10p7h9---9p7h9
|----------------------------------------------------------------
|----------------------------------------------------------------

--------------------------------------------------------------|
--------------------------------------------------------------|
--------------------------------------------------------------|
-10-10-10\5-5---9--9--10--9--7---7---7---9h10p9\5-5---5----5--|
--------------------------------------------------------------|
-----------------------------5---5---5------------7---7-------|


  Riff 5
|------------|
|------------|
|------------|
|--5----7----|
|--5----7----|
|--3----5----|


Song Progression:
Riff 1 x3
Riff 2 x1
Riff 3 x1
Riff 2 x1
Riff 3 x1
Riff 1 x2
Riff 4 x2
Riff 1 x2
Riff 5 x4
Riff 2 x1
Riff 3 x1
Riff 1 x4

  Visit MetalTabs.com for more metal tablature

bottom separator

Contact Us | Privacy Policy | Disclaimer | Legal Notice
Copyright © 2001-2014 MetalTabs.com. All Rights Reserved.