top separator

Home

Forum

What's New

Submit a Tab

FAQ

Links

Contact Us

Link to Us

MuSpy.com

MetalTabs.com logo

Bands

0-9

A

B

C

D

E

F

G

H

I

J

K

L

M

N

O

P

Q

R

S

T

U

V

W

X

Y

Z

Search

What

Where
 

Rompeprop - "The Erected Underwater Necro Clitstomper" Guitar Tab

Plain Text Version
More Rompeprop Tabs

Hits: 1784
Updated: 2006-02-22 04:06:53

 

By:

Robbie Filth

sendpm.gif

email.gif

Important note
This tab is available online because we obtained explicit permission from Rompeprop or their label.


#----------------------------------PLEASE NOTE---------------------------------#
#This file is the author's own work and represents their interpretation of the #
#song. You may only use this file for private study, scholarship, or research. #
#Unless specified otherwise, this is NOT an official tab from the band members.#
#------------------------------------------------------------------------------#

  Visit MetalTabs.com for more metal tablature
  
Band: Rompeprop
Album: Menstrual Stomphulk (EP)
Song: The Erected Underwater Necro Clitstomper
Record Label: Bizarre Leprous Production
Tuning: B E A D F# B

----------------------------
----------------------------
----------------------------
-4-2-2-4-2-2-4-2-2----------
-2-0-0-2-0-0-2-0-0-5-5-5-5--
-------------------3-3-3-3--X4

----------------------------
----------------------------
----------------------------
----------------------------
-5-3-3-5-3-3-5-3-3-2-2-2-2--
-3-1-1-3-1-1-3-1-1-0-0-0-0--X2

Bass does above once on its own.

----------------------------
----------------------------
----------------------------
----------------------------
-5-3-3-5-3-3-5-3-3-2-2-2-2--
-3-1-1-3-1-1-3-1-1-0-0-0-0--

----------------------------
----------------------------
----------------------------
-4-2-2-4-2-2-4-2-2----------
-2-0-0-2-0-0-2-0-0-5-5-5-5--
-------------------3-3-3-3--X2

----------------
----------------
----------------
----------------
----------------
-3-3-4-4-0-1-1--X10
 pm. . . . . .

----------------------------
----------------------------
----------------------------
----------------------------
-5-3-3-5-3-3-5-3-3-2-2-2-2--
-3-1-1-3-1-1-3-1-1-0-0-0-0--X2

----------------
----------------
----------------
----------------
----------------
-3-3-4-4-0-1-1--X4
 pm. . . . . .

----------------------------
----------------------------
----------------------------
----------------------------
-5-3-3-5-3-3-5-3-3-2-2-2-2--
-3-1-1-3-1-1-3-1-1-0-0-0-0--X2

----------------
----------------
----------------
----------------
----------------
-3-3-4-4-0-1-1--X4
 pm. . . . . .

----------------
----------------
----------------
----------------
----------------
-3-3-4-4-0-1-1--X12
 trem.........

----------------------------
----------------------------
----------------------------
----------------------------
-5-3-3-5-3-3-5-3-3-2-2-2-2--
-3-1-1-3-1-1-3-1-1-0-0-0-0--X2

----------------------------
----------------------------
----------------------------
-4-2-2-4-2-2-4-2-2----------
-2-0-0-2-0-0-2-0-0-5-5-5-5--
-------------------3-3-3-3--X4

----------------------------
----------------------------
----------------------------
----------------------------
-5-3-3-5-3-3-5-3-3-2-2-2-2--
-3-1-1-3-1-1-3-1-1-0-0-0-0--X2

----------------
----------------
----------------
----------------
----------------
-3-3-4-4-0-1-1--X6
 pm. . . . . .

THE END

any corrections mail em to: septic_flesh241@hotmail.com

  Visit MetalTabs.com for more metal tablature

bottom separator

Contact Us | Privacy Policy | Disclaimer | Legal Notice
Copyright © 2001-2014 MetalTabs.com. All Rights Reserved.