top separator

Home

Forum

What's New

Submit a Tab

FAQ

Links

Contact Us

Link to Us

MuSpy.com

MetalTabs.com logo

Bands

0-9

A

B

C

D

E

F

G

H

I

J

K

L

M

N

O

P

Q

R

S

T

U

V

W

X

Y

Z

Search

What

Where
 

Rompeprop - "Coughin' coffin" Guitar Tab

Plain Text Version
More Rompeprop Tabs

Hits: 2567
Updated: 2006-02-22 04:06:48

 

By:

Robbie Filth

sendpm.gif

email.gif

Important note
This tab is available online because we obtained explicit permission from Rompeprop or their label.


#----------------------------------PLEASE NOTE---------------------------------#
#This file is the author's own work and represents their interpretation of the #
#song. You may only use this file for private study, scholarship, or research. #
#Unless specified otherwise, this is NOT an official tab from the band members.#
#------------------------------------------------------------------------------#

  Visit MetalTabs.com for more metal tablature
  
Band: Rompeprop
Album: Hellcock's Pornflakes (EP)
Song: Coughin' coffin
Record Label: Bizarre Leprous Production
Tuning: B E A D F# B

-------------
-------------
-------------
-------------
-5555-77-44--
-3333-55-22--X8
 trem......

-----------------------------------
-----------------------------------
-----------------------------------
-----------------------------------
-33335566------------665522222222--
---------333333334444--------------X2
 trem............................

-------------
-------------
-------------
-------------
-5555-77-44--
-3333-55-22--X8
 trem......

--------------------------------------------
--------------------------------------------
--------------------------------------------
--------------------------------------------
-33335566-----------------66552222-222-222--
---------3333-333-333-4444------------------X4
 pm.......... ... ... ............ ... ...

----------------
----------------
----------------
-5--------------
-3-2-2-3-4-5-2--
---0-0-1-2-3-0--X20
   pm. . . . .

------------------
------------------
------------------
------------------
-5-5-5-5-5-5-5-5--
-3-3-3-3-3-3-3-3--X8
 pm. . . . . .

--------------------------
--------------------------
--------------------------
--------------------------
-5-5-5-5555-5-5-5-5555-5--
-3-3-3-3333-3-3-3-3333-3--
 pm. . .... . . . ....

THE END

any corrections mail em to: septic_flesh241@Hotmail.com

  Visit MetalTabs.com for more metal tablature

bottom separator

Contact Us | Privacy Policy | Disclaimer | Legal Notice
Copyright © 2001-2014 MetalTabs.com. All Rights Reserved.