top separator

Home

Forum

What's New

Submit a Tab

FAQ

Links

Contact Us

Link to Us

MetalTabs.com logo

Bands

0-9

A

B

C

D

E

F

G

H

I

J

K

L

M

N

O

P

Q

R

S

T

U

V

W

X

Y

Z

Search

What

Where
 

Torture Killer - "Flesh Breaks To Open Wounds" Guitar Tab

Plain Text Version
More Torture Killer Tabs

Hits: 3922
Rated: 4.50 out of 5 (4 votes)
Updated: 2006-02-22 04:06:31

 

By:

Robbie Filth

sendpm.gif

email.gif

Important note
This tab is available online because we obtained explicit permission from Torture Killer or their label.


#----------------------------------PLEASE NOTE---------------------------------#
#This file is the author's own work and represents their interpretation of the #
#song. You may only use this file for private study, scholarship, or research. #
#Unless specified otherwise, this is NOT an official tab from the band members.#
#------------------------------------------------------------------------------#

  Visit MetalTabs.com for more metal tablature
  
Band: Torture Killer
Album: For Maggots To Devour
Song: Flesh Breaks to Open Wounds
Record Label: Candlelight
Tuning: Bb Eb Ab Db F Bb

--------------------------------------------------------
--------------------------------------------------------
--------------------------------------------------------
---------------------------------------------7------10--
----------------------------------------6666-5-6666--8--
-4-444-8-4-7--4-444-8-4-5--4-444-8-4-7--4444-5-4444--8--X4
                                        pm..   ....

---------------------------------------------------------------
---------------------------------------------------------------
---------------------------------------------------------------
-----------------------5-4-------------------------------------
-66667-6666-6666666666-3-2--66667-6666-6666--------------------
-44445-4444-4444444444------44445-4444-4444-44777777-44888888--X4
 pm..  ...  ..........      ....  ...  .... ........ ........

--------------------------------------------------------
--------------------------------------------------------
--------------------------------------------------------
---------------------------------------------7------10--
----------------------------------------6666-5-6666--8--
-4-444-8-4-7--4-444-8-4-5--4-444-8-4-7--4444-5-4444--8--X4
                                        pm..   ....

---------------------------------------------------------------
---------------------------------------------------------------
---------------------------------------------------------------
-----------------------5-4-------------------------------------
-66667-6666-6666666666-3-2--66667-6666-6666--------------------
-44445-4444-4444444444------44445-4444-4444-44777777-44888888--X4
 pm..  ...  ..........      ....  ...  .... ........ ........

-------------------------------
-------------------------------
-------------------------------
-----------5----4--------------
-6-66-7-66-3-66-2-66-6666-7\6--
-4-44-5-44---44---44-4444-5\4--X4
   pm   ..   ..   .. ....

-------------------
-------------------
-------------------
-----5-4-----------
-6-7-3-2-6666-7\6--
-4-5-----4444-5\4--
         pm..

-------------------------------
-------------------------------
-------------------------------
-----------5----4--------------
-6-66-7-66-3-66-2-66-6666-7\6--
-4-44-5-44---44---44-4444-5\4--X4
   pm   ..   ..   .. ....

--------------------------------------------------------
--------------------------------------------------------
--------------------------------------------------------
---------------------------------------------7------10--
----------------------------------------6666-5-6666--8--
-4-444-8-4-7--4-444-8-4-5--4-444-8-4-7--4444-5-4444--8--X4
                                        pm..   ....

---------------------------------------------------------------
---------------------------------------------------------------
---------------------------------------------------------------
-----------------------5-4-------------------------------------
-66667-6666-6666666666-3-2--66667-6666-6666--------------------
-44445-4444-4444444444------44445-4444-4444-44777777-44888888--X4
 pm..  ...  ..........      ....  ...  .... ........ ........

--------------------------------------------------------------
--------------------------------------------------------------
--------------------------------------------------------------
--------------------------------------------------------------
-66-66-66666666-66-66-66666666-66-66-66666666-66-66-66-66-66--
-44-44-44444444-44-44-44444444-44-44-44444444-44-44-44-44-44--
 pm .. ........ .. .. ........ .. .. ........ .. .. .. .. ..

THE END

any corrections mail em to: septic_flesh241@hotmail.com

  Visit MetalTabs.com for more metal tablature

bottom separator

Contact Us | Privacy Policy | Disclaimer | Legal Notice
Copyright © 2001-2014 MetalTabs.com. All Rights Reserved.